Home » T » The Aller Værste »

The Aller Værste - Dans Til Musikken Tabs

Artists:  A B C D E F G H I J K L M N O P Q R S T U V W X Y Z # 

Dans Til Musikken Tabs

(ver. 1) Click to play this song!
The Aller Værste
                e|---------------------------------------------------------------------------------|
B|--------------------| x 2 during the intro |-------------------------------------|
G|---------------------------------------------------------------------------------|
D|---------------------------------------------------------------------------------|
A|---------------------------------------------------------------------------------|
E|-0-0-0-0-2-2-2-2-3-3-3-3-5-5-5-5-7-7-7-7-10-10-10-10-12-12-12-12-15-15-15-15-12--|

e|---------------------------------------------------------------------------|
B|--------------------| x 4 during the intro |-------------------------------|
G|---------------------------------------------------------------------------|
D|---------------------------------------------------------------------------|
A|------------7----7-10---------------7--------------------------------------|
E|-10-10-7-10---10---------10-10-7-10---10--10-10-10-9-----------------------|

---------------------------------------------------------------------------------

e|---------------------------------------------------|
B|---------------------------------------------------|
G|---------------------------------------------------|
D|---------------------------------------------------| x 2 during the first two lines of the verse
A|-5-7-5-7-5-7-5-7------5-7-5-7-5-7-5-7--------------|
E|-----------------7--------------------7------------|

Em
Dans til musikken
Em
dans til musikken
Dm      (A)  Bb
innerst inne
                             F   Gm   Am7 Abm7    
er det helt sikkert at du er fri

Em Fm Em Bb B Em

Em
Energien er noye oppmalt
pulsen er sjekket opp
hoppende kropper
danser opp og ned og opp
danser er arrangerte
sjanser er programmerte
alle skritt er velplasserte
alle muligheter overvurderte

Em
Dans til musikken
Em
dans til musikken
Dm      (A)  Bb
innerst inne
                             F   Gm   Am7 Abm7    
er det helt sikkert at du er fri

Em Fm Em Bb B Em

e|----------------------------------------------------------------------------12--|
B|----------------------------------------------------------------------------12--|
G|----------------------------------------------------------------------------12--|
D|----------------------------------------------------------------------------14--|
A|----------------------------------------------------------------------------14--|
E-0-0-0-0-2-2-2-2-3-3-3-3-5-5-5-5-7-7-7-7-10-10-10-10-12-12-12-12-15-15-15-15-12--| 

e|----------------7~~------------------7~~-----------------------------------|
B|----------------8~~------------------8~~-----------------------------------|
G|----------------9~~------------------9~~-----------------------------------|
D|--------------9-9~~----------------9-9~~-----------------------------------|
A|------10-7-10---7~~--------10-7-10---7~~-----------------------------------|
E|-7-10-----------------7-10-------------------------------------------------|

e|----13------13-----13--13-13-----------------------------------------------|
B|----15------15-----15--15-15------|Improvise noises a la this|-------------|
G|------------12-------------------------------------------------------------|
D|-12---------12--12---------------------------------------------------------|
A|---------------------------------------------------------------------------|
E|---------------------------------------------------------------------------|

e|----------------------------------------------------------------------------12--|
B|----------------------------------------------------------------------------12--|
G|----------------------------------------------------------------------------12--|
D|----------------------------------------------------------------------------14--|
A|----------------------------------------------------------------------------14--|
E-0-0-0-0-2-2-2-2-3-3-3-3-5-5-5-5-7-7-7-7-10-10-10-10-12-12-12-12-15-15-15-15-12--| 

e|---------------------------------------------------------------------------|
B|---------------------------------------------------------------------------|
G|---------------------------------------------------------------------------|
D|---------------------------------------------------------------------------|
A|------------7----7-10---------------7--------------------------------------|
E|-10-10-7-10---10---------10-10-7-10---10--10-10-10-9-----------------------|

Em
Dans til musikken
Em
dans til musikken
Dm      (A)  Bb
innerst inne
                             F   Gm   Am7 Abm7    
er det helt sikkert at du er fri            
Submit corrections

↑ Back to top | Tablatures and chords for acoustic guitar and electric guitar, ukulele, drums are parodies/interpretations of the original songs. You may use it for private study, scholarship, research or language learning purposes only