» » »

The All American Rejects - My Paper Heart Tabs

Artists:  A B C D E F G H I J K L M N O P Q R S T U V W X Y Z # 

My Paper Heart Tabs

(ver. 3) Click to play this song!
The All American Rejects
 Rating:
4/5 (4 votes)

 My Paper Heart lessons Tabs too difficult? Try these video lessons and learn fast
 
                Release Date: Feb 04, 2003
Label: Dreamworks SKG
	The All-American Rejects Are:
Vaocals: Tyson Ritter
Guitars: Nick Wheeler
Guitars: Mike Kennerty
Bass Guitars: Tyson Ritter
Drums: Chris Gaylor
	The All-American Rejects Use:
Sennheiser Microphones, Gibson, Fender, and Epiphone
guitars, Line 6 Pedals, Ernie Ball Strings, Dunlop picks,
Tama Drums, Sabian Symbols and Vater Drum Sticks.

Standard Tunung
e|--
b|--
g|--
d|--
a|--
e|--

Symols Used In This Song:
~ Hold Note Out



Guitar 1 (Lead) Intro: (Light Distortion or Clean with Heavy Distortion) (Play soft)
e|----------------------------------------------------------|
b|----------------------------------------------------------|
g|------------------5~~~~-----------------------------------|
d|------------------5~~~~------------------5~~~~------------|
a|------------------3~~~~------------------5~~~~------------|
e|-----------------------------------------3~~~~------------|
  Please just don\'t play with me  My paper heart will bleed

Guitar 1 (Lead) Intro: 
e|----------------------------------------------------------------|
b|----------------------------------------------------------------|
g|----------------------------------------------------------------|
d|-----7~~~~----------------------3~~~~---------------------------|
a|-----7~~~~----------------------3~~~~---------------------------|
e|-----5~~~~----------------------1~~~~---------------------------|
  This wait for destiny won\'t do  Be with me please I beseach you

Guitar 1 (Lead) Intro: 
e|----------------------------------------------------------------------|
b|----------------------------------------------------------------------|
g|--5~~~~---------------------------------------------------------5~~~~-|
d|--5~~~~---------------------5~~~~----------7~~~~----------3~~~~-5~~~~-|
a|--3~~~~---------------------5~~~~----------7~~~~----------3~~~~-3~~~~-|
e|----------------------------3~~~~----------5~~~~----------1~~~~-------|
  Simple things that make you run-away       Catch you if I can





Guitars 1 & 2 (Rythm) Verse:
e|----------------------------------------------------|
b|----------------------------------------------------|
g|--5-5-5-5-5-5-5-5-5-5-5-5---------------------------|
d|--5-5-5-5-5-5-5-5-5-5-5-5--5-5-5-5-5-5-5-5-5-5-5-5--|
a|--3-3-3-3-3-3-3-3-3-3-3-3--5-5-5-5-5-5-5-5-5-5-5-5--|
e|---------------------------3-3-3-3-3-3-3-3-3-3-3-3--|
      Tears    fall     down    your   face

Guitars 1 & 2 Verse:
e|------------------------------------------------------------|
b|------------------------------------------------------------|
g|------------------------------------------------------------|
d|--7-7-7-7-7-7-7-7--5-5-5-5-5-5-5-5--3-3-3-3-3-3-3-3-3-3-3-3-|
a|--7-7-7-7-7-7-7-7--5-5-5-5-5-5-5-5--3-3-3-3-3-3-3-3-3-3-3-3-|
e|--5-5-5-5-5-5-5-5--3-3-3-3-3-3-3-3--1-1-1-1-1-1-1-1-1-1-1-1-|
      The taste     is something    new       something that

Guitars 1 & 2 (Rythm) Verse:
e|----------------------------------------------------|
b|----------------------------------------------------|
g|--5-5-5-5-5-5-5-5-5-5-5-5---------------------------|
d|--5-5-5-5-5-5-5-5-5-5-5-5--5-5-5-5-5-5-5-5-5-5-5-5--|
a|--3-3-3-3-3-3-3-3-3-3-3-3--5-5-5-5-5-5-5-5-5-5-5-5--|
e|---------------------------3-3-3-3-3-3-3-3-3-3-3-3--|
      I          know   moving   on      is 

Guitars 1 & 2 Verse:
e|------------------------------------------------------------|
b|------------------------------------------------------------|
g|------------------------------------------------------------|
d|--7-7-7-7-7-7-7-7--5-5-5-5-5-5-5-5--3-3-3-3-3-3-3-3-3-3-3-3-|
a|--7-7-7-7-7-7-7-7--5-5-5-5-5-5-5-5--3-3-3-3-3-3-3-3-3-3-3-3-|
e|--5-5-5-5-5-5-5-5--3-3-3-3-3-3-3-3--1-1-1-1-1-1-1-1-1-1-1-1-|
       Easiest      when I am  around    you





Guitars 1 & 2 Interlude:
e|----------------------|
b|----------------------|
g|---5~~~~~~------------|
d|---5~~~~~~------------|
a|---3~~~~~~------------|
e|----------------------|
  So bottle up old love

Guitars 1 & 2 Interlude:
e|------------------------|
b|------------------------|
g|------------------------|
d|----5~~~~~~-------------|
a|----5~~~~~~-------------|
e|----3~~~~~~-------------|
  And throw it out to sea

Guitars 1 & 2 Interlude:
e|-------------------------------------------------------------------|
b|-------------------------------------------------------------------|
g|-------------------------------------------------------------------|
d|--7-7-7-7-7-7-7-7-7-7-7-7-7-7-7-7--3-3-3-3-3-3-3-3-3-3-3-3-3-3-3-3-|
a|--7-7-7-7-7-7-7-7-7-7-7-7-7-7-7-7--3-3-3-3-3-3-3-3-3-3-3-3-3-3-3-3-|
e|--5-5-5-5-5-5-5-5-5-5-5-5-5-5-5-5--1-1-1-1-1-1-1-1-1-1-1-1-1-1-1-1-|
    Watch           it       away      as       you    cry

Guitars 1 & 2 Interlude:
e|--------------------|
b|--------------------|
g|---5~~~~~~----------|
d|---5~~~~~~----------|
a|---3~~~~~~----------|
e|--------------------|
  Now a year has past

Guitars 1 & 2 Interlude:
e|---------------|
b|---------------|
g|---------------|
d|----5~~~~~~----|
a|----5~~~~~~----|
e|----3~~~~~~----|
  The seasons go





Guitars 1 & 2 Chorus:
e|-------------------------------------------------------------------|
b|-------------------------------------------------------------------|
g|------------------5-5-5-5-5-5-5-5-5-5-5-5--------------------------|
d|------------------5-5-5-5-5-5-5-5-5-5-5-5--5-5-5-5-5-5-5-5-5-5-5-5-|
a|------------------3-3-3-3-3-3-3-3-3-3-3-3--5-5-5-5-5-5-5-5-5-5-5-5-|
e|-------------------------------------------3-3-3-3-3-3-3-3-3-3-3-3-|
  Please just don\'t play   with me  My paper heart

Guitars 1 & 2 Chorus:
e|-------------------------------------------------------------------------|
b|-------------------------------------------------------------------------|
g|-------------------------------------------------------------------------|
d|--3--3--3--3--3--3--3--3--3--3--3--3--3--3--3--3--3--3--3--3--3--3--3--3-|
a|--3--3--3--3--3--3--3--3--3--3--3--3--3--3--3--3--3--3--3--3--3--3--3--3-|
e|--1--1--1--1--1--1--1--1--1--1--1--1--1--1--1--1--1--1--1--1--1--1--1--1-|
    This  wait  for  destiny  won\'t do  Be  with me please  I  beseach you

Guitars 1 & 2 Chorus:
e|----------------------------------------------------|
b|----------------------------------------------------|
g|--5-5-5-5-5-5-5-5-5-5-5-5---------------------------|
d|--5-5-5-5-5-5-5-5-5-5-5-5---5-5-5-5-5-5-5-5-5-5-5-5-|
a|--3-3-3-3-3-3-3-3-3-3-3-3---5-5-5-5-5-5-5-5-5-5-5-5-|
e|----------------------------3-3-3-3-3-3-3-3-3-3-3-3-|
  Simple things that make you   run   away

Guitars 1 & 2 Chorus:
e|-----------------------------------------------------------------------------|
b|-----------------------------------------------------------------------------|
g|--------------------------------------------------------------------------5~~|
d|--3--3--3--3--3--3--3--3--3--3--3--3--3--3--3--3--3--3--3--3--3--3--3--3--5~~|
a|--3--3--3--3--3--3--3--3--3--3--3--3--3--3--3--3--3--3--3--3--3--3--3--3--3~~|
e|--1--1--1--1--1--1--1--1--1--1--1--1--1--1--1--1--1--1--1--1--1--1--1--1-----|
    Catch       you      if       I      can




Guitars 1 & 2 Verse:
e|----------------------------------------------------|
b|----------------------------------------------------|
g|--5-5-5-5-5-5-5-5-5-5-5-5---------------------------|
d|--5-5-5-5-5-5-5-5-5-5-5-5--5-5-5-5-5-5-5-5-5-5-5-5--|
a|--3-3-3-3-3-3-3-3-3-3-3-3--5-5-5-5-5-5-5-5-5-5-5-5--|
e|---------------------------3-3-3-3-3-3-3-3-3-3-3-3--|
    Waiting  day  to  day it goes    through


Guitars 1 & 2 Verse:
e|------------------------------------------------------------|
b|------------------------------------------------------------|
g|------------------------------------------------------------|
d|--7-7-7-7-7-7-7-7--5-5-5-5-5-5-5-5--3-3-3-3-3-3-3-3-3-3-3-3-|
a|--7-7-7-7-7-7-7-7--5-5-5-5-5-5-5-5--3-3-3-3-3-3-3-3-3-3-3-3-|
e|--5-5-5-5-5-5-5-5--3-3-3-3-3-3-3-3--1-1-1-1-1-1-1-1-1-1-1-1-|
      My    lips      are   sealed for   her  My tongue is

Guitars 1 & 2 Verse:
e|----------------------------------------------------|
b|----------------------------------------------------|
g|--5-5-5-5-5-5-5-5-5-5-5-5---------------------------|
d|--5-5-5-5-5-5-5-5-5-5-5-5--5-5-5-5-5-5-5-5-5-5-5-5--|
a|--3-3-3-3-3-3-3-3-3-3-3-3--5-5-5-5-5-5-5-5-5-5-5-5--|
e|---------------------------3-3-3-3-3-3-3-3-3-3-3-3--|
    Tied   to  a   dream  of  being   with   you

Guitars 1 & 2 Verse:
e|------------------------------------------------------------|
b|------------------------------------------------------------|
g|------------------------------------------------------------|
d|--7-7-7-7-7-7-7-7--5-5-5-5-5-5-5-5--3-3-3-3-3-3-3-3-3-3-3-3-|
a|--7-7-7-7-7-7-7-7--5-5-5-5-5-5-5-5--3-3-3-3-3-3-3-3-3-3-3-3-|
e|--5-5-5-5-5-5-5-5--3-3-3-3-3-3-3-3--1-1-1-1-1-1-1-1-1-1-1-1-|
  To settle for less  is  not what I   prefer





Guitars 1 & 2 Interlude:
e|----------------------|
b|----------------------|
g|---5~~~~~~------------|
d|---5~~~~~~------------|
a|---3~~~~~~------------|
e|----------------------|
  So bottle up old love

Guitars 1 & 2 Interlude:
e|------------------------|
b|------------------------|
g|------------------------|
d|----5~~~~~~-------------|
a|----5~~~~~~-------------|
e|----3~~~~~~-------------|
  And throw it out to sea

Guitars 1 & 2 Interlude:
e|-------------------------------------------------------------------|
b|-------------------------------------------------------------------|
g|-------------------------------------------------------------------|
d|--7-7-7-7-7-7-7-7-7-7-7-7-7-7-7-7--3-3-3-3-3-3-3-3-3-3-3-3-3-3-3-3-|
a|--7-7-7-7-7-7-7-7-7-7-7-7-7-7-7-7--3-3-3-3-3-3-3-3-3-3-3-3-3-3-3-3-|
e|--5-5-5-5-5-5-5-5-5-5-5-5-5-5-5-5--1-1-1-1-1-1-1-1-1-1-1-1-1-1-1-1-|
    Watch           it       away      as       you    cry

Guitars 1 & 2 Interlude:
e|--------------------|
b|--------------------|
g|---5~~~~~~----------|
d|---5~~~~~~----------|
a|---3~~~~~~----------|
e|--------------------|
  Now a year has past

Guitars 1 & 2 Interlude:
e|---------------|
b|---------------|
g|---------------|
d|----5~~~~~~----|
a|----5~~~~~~----|
e|----3~~~~~~----|
  The seasons go





Guitars 1 & 2 Chorus:
e|-------------------------------------------------------------------|
b|-------------------------------------------------------------------|
g|------------------5-5-5-5-5-5-5-5-5-5-5-5--------------------------|
d|------------------5-5-5-5-5-5-5-5-5-5-5-5--5-5-5-5-5-5-5-5-5-5-5-5-|
a|------------------3-3-3-3-3-3-3-3-3-3-3-3--5-5-5-5-5-5-5-5-5-5-5-5-|
e|-------------------------------------------3-3-3-3-3-3-3-3-3-3-3-3-|
  Please just don\'t play   with me  My paper heart

Guitars 1 & 2 Chorus:
e|-------------------------------------------------------------------------|
b|-------------------------------------------------------------------------|
g|-------------------------------------------------------------------------|
d|--3--3--3--3--3--3--3--3--3--3--3--3--3--3--3--3--3--3--3--3--3--3--3--3-|
a|--3--3--3--3--3--3--3--3--3--3--3--3--3--3--3--3--3--3--3--3--3--3--3--3-|
e|--1--1--1--1--1--1--1--1--1--1--1--1--1--1--1--1--1--1--1--1--1--1--1--1-|
    This  wait  for  destiny  won\'t do  Be  with me please  I  beseach you

Guitars 1 & 2 Chorus:
e|----------------------------------------------------|
b|----------------------------------------------------|
g|--5-5-5-5-5-5-5-5-5-5-5-5---------------------------|
d|--5-5-5-5-5-5-5-5-5-5-5-5---5-5-5-5-5-5-5-5-5-5-5-5-|
a|--3-3-3-3-3-3-3-3-3-3-3-3---5-5-5-5-5-5-5-5-5-5-5-5-|
e|----------------------------3-3-3-3-3-3-3-3-3-3-3-3-|
  Simple things that make you   run   away

Guitars 1 & 2 Chorus:
e|-----------------------------------------------------------------------------|
b|-----------------------------------------------------------------------------|
g|--------------------------------------------------------------------------5~~|
d|--3--3--3--3--3--3--3--3--3--3--3--3--3--3--3--3--3--3--3--3--3--3--3--3--5~~|
a|--3--3--3--3--3--3--3--3--3--3--3--3--3--3--3--3--3--3--3--3--3--3--3--3--3~~|
e|--1--1--1--1--1--1--1--1--1--1--1--1--1--1--1--1--1--1--1--1--1--1--1--1-----|
    Catch       you      if       I      can



Guitar 1 Bridge: (Clean)
e|-------------------------------------------------------------------|
b|-------------------------------------------------------------------|
g|--5-5-5-5-5-5-5-5-5-5-5-5-5-5-5-5----------------------------------|
d|--5-5-5-5-5-5-5-5-5-5-5-5-5-5-5-5--5-5-5-5-5-5-5-5-5-5-5-5-5-5-5-5-|
a|--3-3-3-3-3-3-3-3-3-3-3-3-3-3-3-3--5-5-5-5-5-5-5-5-5-5-5-5-5-5-5-5-|
e|-----------------------------------3-3-3-3-3-3-3-3-3-3-3-3-3-3-3-3-|

Guitar 1 Bridge: (Clean)
e|-------------------------------------------------------------------|
b|-------------------------------------------------------------------|
g|-------------------------------------------------------------------|
d|--7-7-7-7-7-7-7-7-7-7-7-7-7-7-7-7--5-5-5-5-5-5-5-5-5-5-5-5-5-5-5-5-|
a|--7-7-7-7-7-7-7-7-7-7-7-7-7-7-7-7--5-5-5-5-5-5-5-5-5-5-5-5-5-5-5-5-|
e|--5-5-5-5-5-5-5-5-5-5-5-5-5-5-5-5--3-3-3-3-3-3-3-3-3-3-3-3-3-3-3-3-|

Guitar 1 Bridge: (Clean)
e|-------------------------------------------------------------------|
b|-------------------------------------------------------------------|
g|--5-5-5-5-5-5-5-5-5-5-5-5-5-5-5-5----------------------------------|
d|--5-5-5-5-5-5-5-5-5-5-5-5-5-5-5-5--5-5-5-5-5-5-5-5-5-5-5-5-5-5-5-5-|
a|--3-3-3-3-3-3-3-3-3-3-3-3-3-3-3-3--5-5-5-5-5-5-5-5-5-5-5-5-5-5-5-5-|
e|-----------------------------------3-3-3-3-3-3-3-3-3-3-3-3-3-3-3-3-|
        Ba ba ba ba la la la la          Ba ba ba ba la la la la
       (Do do Do do Do do Do do)        (Do do Do do Do do Do do)  

Guitar 1 Bridge: (Clean)
e|---------------------------------------|
b|---------------------------------------|
g|---------------------------------------|
d|--7-7-7-7-7-7-7-7-7-7-7-7-7-7-7-7--5~~-|
a|--7-7-7-7-7-7-7-7-7-7-7-7-7-7-7-7--5~~-|
e|--5-5-5-5-5-5-5-5-5-5-5-5-5-5-5-5--3~~-|
        Ba ba ba ba la la la la
       (Do do Do do Do do Do do) 





Guitars 1 & 2 Outro:
e|----------------------------------------------------|
b|----------------------------------------------------|
g|--5-5-5-5-5-5-5-5-5-5-5-5---------------------------|
d|--5-5-5-5-5-5-5-5-5-5-5-5--5-5-5-5-5-5-5-5-5-5-5-5--|
a|--3-3-3-3-3-3-3-3-3-3-3-3--5-5-5-5-5-5-5-5-5-5-5-5--|
e|---------------------------3-3-3-3-3-3-3-3-3-3-3-3--|
       Summertime            the nights are so long

Guitars 1 & 2 Outro:
e|--------------------------------------------------------------------------|
b|--------------------------------------------------------------------------|
g|--------------------------------------------------------------------------|
d|--7--7--7--7--7--7--7--7--7--7--7--7---3--3--3--3--3--3--3--3--3--3--3--3-|
a|--7--7--7--7--7--7--7--7--7--7--7--7---3--3--3--3--3--3--3--3--3--3--3--3-|
e|--5--5--5--5--5--5--5--5--7--5--5--5---1--1--1--1--1--1--1--1--1--1--1--1-|
        The    leaves   fall   down    and so do i into the arms of a friend

Guitars 1 & 2 Outro:
e|----------------------------------------------------|
b|----------------------------------------------------|
g|--5-5-5-5-5-5-5-5-5-5-5-5---------------------------|
d|--5-5-5-5-5-5-5-5-5-5-5-5--5-5-5-5-5-5-5-5-5-5-5-5--|
a|--3-3-3-3-3-3-3-3-3-3-3-3--5-5-5-5-5-5-5-5-5-5-5-5--|
e|---------------------------3-3-3-3-3-3-3-3-3-3-3-3--|
      Winter   nights        my bedside is cold

Guitars 1 & 2 Outro:
e|--------------------------------------------------------------------------|
b|--------------------------------------------------------------------------|
g|--------------------------------------------------------------------------|
d|--7--7--7--7--7--7--7--7--7--7--7--7---3--3--3--3--3--3--3--3--3--3--3--3-|
a|--7--7--7--7--7--7--7--7--7--7--7--7---3--3--3--3--3--3--3--3--3--3--3--3-|
e|--5--5--5--5--5--5--5--5--7--5--5--5---1--1--1--1--1--1--1--1--1--1--1--1-|
      For   I    am   gone             And spring blossoms you to me

Guitars 1 & 2 Outro:
e|----------------------------------------------------|
b|----------------------------------------------------|
g|--5-5-5-5-5-5-5-5-5-5-5-5---------------------------|
d|--5-5-5-5-5-5-5-5-5-5-5-5--5-5-5-5-5-5-5-5-5-5-5-5--|
a|--3-3-3-3-3-3-3-3-3-3-3-3--5-5-5-5-5-5-5-5-5-5-5-5--|
e|---------------------------3-3-3-3-3-3-3-3-3-3-3-3--|
       Summertime           the nights they are so long

Guitars 1 & 2 Outro:
e|--------------------------------------------------------------------------|
b|--------------------------------------------------------------------------|
g|--------------------------------------------------------------------------|
d|--7--7--7--7--7--7--7--7--7--7--7--7---3--3--3--3--3--3--3--3--3--3--3--3-|
a|--7--7--7--7--7--7--7--7--7--7--7--7---3--3--3--3--3--3--3--3--3--3--3--3-|
e|--5--5--5--5--5--5--5--5--7--5--5--5---1--1--1--1--1--1--1--1--1--1--1--1-|
        The    leaves   fall   down    and so do i into the arms of a friend

Guitars 1 & 2 Outro:
e|----------------------------------------------------|
b|----------------------------------------------------|
g|--5-5-5-5-5-5-5-5-5-5-5-5---------------------------|
d|--5-5-5-5-5-5-5-5-5-5-5-5--5-5-5-5-5-5-5-5-5-5-5-5--|
a|--3-3-3-3-3-3-3-3-3-3-3-3--5-5-5-5-5-5-5-5-5-5-5-5--|
e|---------------------------3-3-3-3-3-3-3-3-3-3-3-3--|
      Winter   nights        my bedside is cold

Guitars 1 & 2 Outro:
e|------------------------------------------------------------------------------|
b|------------------------------------------------------------------------------|
g|------------------------------------------------------------------------------|
d|--7--7--7--7--7--7--7--7--7--7--7--7---3--3--3--3--3--3--3--3--3--3--3--3~~~~-|
a|--7--7--7--7--7--7--7--7--7--7--7--7---3--3--3--3--3--3--3--3--3--3--3--3~~~~-|
e|--5--5--5--5--5--5--5--5--7--5--5--5---1--1--1--1--1--1--1--1--1--1--1--1~~~~-|
      For   I    am   gone               And   spring    blossoms   you    to me
            
Submit corrections


        My Paper Heart lessons Hard to play? Try these video lessons and learn fast My Paper Heart lessons
        
↑ Back to top | Tablatures and chords for acoustic guitar and electric guitar, ukulele, drums are parodies/interpretations of the original songs. You may use it for private study, scholarship, research or language learning purposes only