» » »

The All American Rejects - Move Along Tabs

Artists:  A B C D E F G H I J K L M N O P Q R S T U V W X Y Z # 

Move Along Tabs

(ver. 1) Click to play this song!
The All American Rejects
 Rating:
4/5 (4 votes)

 Move Along lessons Tabs too difficult? Try these video lessons and learn fast
 
                this isnt mine its jaames only his tabbs wernt accepted so i sent it in so tthis is jaames
============================================================================
Album : Move Along
Tuning : Standard down 1/2 step

Intro - Gtr.1
E B C#m A
eb|------------------------------------------------------------------|
Bb|-----(7)-9-9-9-9-9-9---7-7-7-7-7-7----9-9-9-9-9-9--101010101010---|
Gb|-(8)-----9-9-9-9-9-9---8-8-8-8-8-8----9-9-9-9-9-9---9-9-9-9-9-9---|
Db|---------9-9-9-9-9-9---9-9-9-9-9-9---111111111111--111111111111---|
Ab|------------------------------------------------------------------|
Eb|------------------------------------------------------------------|

Gtr.2
eb|------------------------------------------------------------------|
Bb|------------------------------------------------------------------|
Gb|-(8)--------------------------------------------------------------|
Db|---------666666666666--999999999999--999999999999--777777777777---|
Ab|---------777777777777--999999999999--777777777777--777777777777---|
Eb|------------------------------------------------------------------|

Verse - Gtr.1
E G#m C#m B
Go ahead as you waste your days with thinking...
eb|-------------------------------------------------------------|(x2)
Bb|-9-9-9-9-9-9---4-4-4-4-4-4---5-5-5-5---4-4---5-5-5-5---4-4---|
Gb|-9-9-9-9-9-9---4-4-4-4-4-4---6-6-6-6---4-4---6-6-6-6---4-4---|
Db|-9-9-9-9-9-9---6-6-6-6-6-6---6-6-6-6---4-4---6-6-6-6---4-4---|
Ab|-------------------------------------------------------------|
Eb|-------------------------------------------------------------|

Gtr.2
eb|--------------------------------------------------------------|(x2)
Bb|--------------------------------------------------------------|
Gb|--------------------------------------------------------------|
Db|--------------------------------------------------------------|
Ab|-777777777777--666666666666--44444444--2222--44444444--6666---|
Eb|--------------------------------------------------------------|

Chorus - Gtr.1
C#m E B
When all you got to keep is strong, move along move along...
eb|------------------------------------------------------------|
Bb|------------------------------------------------------------|
Gb|-----9999999999--1111111---99999999999999--88888888888888---|
Db|-----xxxxxxxxxx--x-x-x-x---xxxxxxxxxxxxxx--xxxxxxxxxxxxxx---|
Ab|-----7777777777--9-9-9-9---77777777777777--66666666666666---|
Eb|-16\--------------------------------------------------------|

like I know you do...and even when your hope is gone...
eb|-------------------------------------------------------------|
Bb|-------------------------------------------------------------|
Gb|-6666666666--8888--9999999999--1313131313131313131313131313--|
Db|-xxxxxxxxxx--xxxx--xxxxxxxxxx--x-x-x-x-x-x-x-x-x-x-x-x-x-x---|
Ab|-4444444444--6666--7777777777--1111111111111111111111111111--|
Eb|-------------------------------------------------------------|

move along move along, just to make it through...
eb|---------------------------------------------------|
Bb|---------------------------------------------------|
Gb|-1111111111111111111111111111---99999999999999-----|
Db|--x-x-x-x-x-x-x-x-x-x-x-x-x-x---xxxxxxxxxxxxxx-----|
Ab|--9-9-9-9-9-9-9-9-9-9-9-9-9-9---77777777777777-----|
Eb|---------------------------------------------------|

Gtr.2 plays this while Gtr.1 plays that up above
eb|------------------------------------------------------------------------|(x2)
Bb|------------------------------------------------------------------------|
Gb|-6-6-6-6-6-6-6-6--------------------------------------------------------|
Db|-6-6-6-6-6-6-6-6---6-6-6-6-6-6-6-6----4-4-4-4-4-4-4-4---2-2-2-2-2-2-2-2-|
Ab|-4-4-4-4-4-4-4-4---7-7-7-7-7-7-7-7----6-6-6-6-6-6-6-6---4-4-4-4-4-4-4-4-|
Eb|-------------------0-0-0-0-0-0-0-0----7-7-7-7-7-7-7-7---5-5-5-5-5-5-5-5-|

Verse 2 - Gtr.1, Gtr.2 plays 1st verse again
eb|-------------------------|----------------------------|(x2)
Bb|-4-4-4-4-4---4-4-4-4-4---|-5-----5-----5-----4--------|
Gb|-5-5-5-5-5---4-4-4-4-4---|---6-----6-----6-----6-4-6--|
Db|-6-6-6-6-6---6-6-6-6-6---|-----6-----6-----6----------|
Ab|-------------------------|----------------------------|
Eb|-------------------------|----------------------------|

eb|---------------------------|----------------------------|
Bb|-5-----5-----5-----5-------|-4-----4-----4-----4--------|
Gb|---4-----4-----4-----4---4-|---4-----4-----4-----4---4--|
Db|-----6-----6-----6-----6---|-----6-----6-----6-----6----|
Ab|---------------------------|----------------------------|
Eb|---------------------------|----------------------------|

eb|---------------------------|------------------------------|
Bb|-5-----5-----5-----4-------|-5-----5-----5-----4----------|
Gb|---6-----6-----6-----6-4-6-|---6-----6-----6-----6-4-6----|
Db|-----6-----6-----6---------|-----6-----6-----6------------|
Ab|---------------------------|------------------------------|
Eb|---------------------------|------------------------------|
Pre-chorus - Gtr.1
eb|-17-16-------------12--------------------------|
Bb|-------------12-------12-----------------------|
Gb|-------13-14----14-------14-13------9-9-(9)----|
Db|-------------------------------14---9-9-(9)----|
Ab|------------------------------------7-7-(7)----|
Eb|-----------------------------------------------|

Chorus - Gtr.1
C#m E B
When all you got to keep is strong, move along move along...
eb|------------------------------------------------------------|
Bb|------------------------------------------------------------|
Gb|-----9999999999--1111111---99999999999999--88888888888888---|
Db|-----xxxxxxxxxx--x-x-x-x---xxxxxxxxxxxxxx--xxxxxxxxxxxxxx---|
Ab|-----7777777777--9-9-9-9---77777777777777--66666666666666---|
Eb|-16\--------------------------------------------------------|

like I know you do...and even when your hope is gone...
eb|-------------------------------------------------------------|
Bb|-------------------------------------------------------------|
Gb|-6666666666--8888--9999999999--1313131313131313131313131313--|
Db|-xxxxxxxxxx--xxxx--xxxxxxxxxx--x-x-x-x-x-x-x-x-x-x-x-x-x-x---|
Ab|-4444444444--6666--7777777777--1111111111111111111111111111--|
Eb|-------------------------------------------------------------|

move along move along, just to make it through...
eb|---------------------------------------------------|
Bb|---------------------------------------------------|
Gb|-1111111111111111111111111111---99999999999999-----|
Db|--x-x-x-x-x-x-x-x-x-x-x-x-x-x---xxxxxxxxxxxxxx-----|
Ab|--9-9-9-9-9-9-9-9-9-9-9-9-9-9---77777777777777-----|
Eb|---------------------------------------------------|

Gtr.2
eb|------------------------------------------------------------------------|(x2)
Bb|------------------------------------------------------------------------|
Gb|-6-6-6-6-6-6-6-6--------------------------------------------------------|
Db|-6-6-6-6-6-6-6-6---6-6-6-6-6-6-6-6----4-4-4-4-4-4-4-4---2-2-2-2-2-2-2-2-|
Ab|-4-4-4-4-4-4-4-4---7-7-7-7-7-7-7-7----6-6-6-6-6-6-6-6---4-4-4-4-4-4-4-4-|
Eb|-------------------0-0-0-0-0-0-0-0----7-7-7-7-7-7-7-7---5-5-5-5-5-5-5-5-|

Bridge - Gtr.1 and Gtr.2
eb|-----------------------------------------------------------------|
Bb|-----------------------------------------------------------------|
Gb|-/14141414141414141414141414141414--999999999999--888888888888---|
Db|-/-x-x-x-x-x-x-x-x-x-x-x-x-x-x-x-x--xxxxxxxxxxxx--xxxxxxxxxxxx---|
Ab|-/12121212121212121212121212121212--777777777777--666666666666---|
Eb|-----------------------------------------------------------------|

eb|-------------------------------------------------------------------------|
Bb|-------------------------------------------------------------------------|
Gb|-99999999--6666--444444--66--8888--999999999999--11111111111111111111111-|
Db|-xxxxxxxx--xxxx--xxxxxx--xx--xxxx--xxxxxxxxxxxx--x-x-x-x-x-x-x-x-x-x-x-x-|
Ab|-77777777--4444--222222--44--6666--777777777777--9-9-9-9-9-9-9-9-9-9-9-9-|
Eb|-------------------------------------------------------------------------|

eb|------------------------------------------------------|
Bb|------------------------------------------------------|
Gb|-131313131313131313131313--141414141414141414141414---|
Db|--x-x-x-x-x-x-x-x-x-x-x-x---x-x-x-x-x-x-x-x-x-x-x-x---|
Ab|-111111111111111111111111--121212121212121212121212---|
Eb|------------------------------------------------------|

Ah, Ah, Ah, Ah, Ah...
eb|------------------------------------------------|
Bb|-1717171717171717171717171717171717171717--9----|
Gb|-1616161616161616161616161616161616161616--9----|
Db|--x-x-x-x-x-x-x-x-x-x-x-x-x-x-x-x-x-x-x-x--9----|
Ab|-1414141414141414141414141414141414141414--7----|
Eb|------------------------------------------------|

Chorus.2(Piano arr. for gtr.) - Gtr.1
eb|-4-------4---2-------0-------0----------4-------4---2---2---0----|
Bb|-5---7---5---4-------2---0---x----------5---7---5---4---4---2----|
Gb|-6-------6---4-------2-------2------1---6-------6---4---4---2----|
Db|-x-----------x-------x--------------2---x-----------x-------x----|
Ab|-4-----------2---2---0----------0---2---4-----------2-------0----|
Eb|------------------------------------0----------------------------|
            
Submit corrections


        Move Along lessons Hard to play? Try these video lessons and learn fast Move Along lessons
        
↑ Back to top | Tablatures and chords for acoustic guitar and electric guitar, ukulele, drums are parodies/interpretations of the original songs. You may use it for private study, scholarship, research or language learning purposes only