» » »

The All American Rejects - Im Waiting Tabs

Artists:  A B C D E F G H I J K L M N O P Q R S T U V W X Y Z # 

Im Waiting Tabs

(ver. 3) Click to play this song!
The All American Rejects
 Rating:
4/5 (4 votes)

 Im Waiting lessons Tabs too difficult? Try these video lessons and learn fast
 
                
Standard Tuning: e,B,G,D,A,E

Guitar I: Heavy Distortion
Guitar II: Heavy Distortion

Intro:
Guitar I
e|-----------------------------------------------------------------------|
B|-----------------------------------------------------------------------|
G|----77-7-----77----7777777777777777-------------------7777777777777777-|
D|-2--xx-x--5--xx-5/-7777777777777777-2--22-2/-5--55-5/-7777777777777777-|
A|-2--55-5--5--55-5/-5555555544444445-2--22-2/-5--55-5/-5555555544444445-|
E|-0--------3-----3/------------------0--00-0/-3--33-3/------------------|
Guitar II
e|-----------------------------------------------------------------------|
B|---------------------------------------------------------77-7----66-67-|
G|----------------------77-7----66-67----------------------77-7----77-77-|
D|----55-5-----77-5/----77-7----77-77----22-2-----77-5/------------------|
A|----xx-x-----xx-5/---------------------xx-x-----xx-5/------------------|
E|----33-3-----55-3/---------------------00-0-----55-3/------------------|

Verse 1:
Guitar I
e|------------------------------------|
B|------------------------------------|
G|-44-------77-------77-7-7-6-6-6-67--|
D|-55-------77-------77-7-7-7-7-7-77--|
A|------------------------------------|
E|------------------------------------|
Guitar II                                    x2
e|------------------------------------|
B|------------------------------------|
G|------------------------------------|
D|------------------------------------|
A|---------------------x-x-x-x-x-x----|
E|---22333----55533----x-x-x-x-x-x----|
pm   *****    *****

Pre-chorus:                                                      
Guitar I                                             pick slide             
e|-----------------------------------------------------------\---|
B|-----------------------------------------------------------\---| 
G|-66666666-77777777-99999999-77777777-66666666-77777777-7~--\---|
D|-44444444-44444444-77777777-55555555-44444444-44444444-5~--\---| 
A|-----------------------------------------------------------\---| 
E|-----------------------------------------------------------\---|
pm *** ** * *** ** * *** ** * *** ** * *** ** * *** ** 
Guitar II
e|--------------------------------------------------------8-9----|
B|---------------------------------------------------------------|
G|-6-6-6-6--7-7-7-7--9-9-9-9--7-7-7-7--6-6-7-67-6-7-9-79---------|
D|--4-4-4-4--4-4-4-4--7-7-7-7--5-5-5-5--4-4-4----7-7-7-----------|
A|---------------------------------------------------------------|
E|---------------------------------------------------------------|
pm ******** ** * * * **** * *  * * * *  * * *    * * *

Chorus:
Guitars I,II
e|--------------------------------------------------------------------|
B|--------------------------------------------------------------------|
G|-7777777777777777---------------------------------------------------|
D|-7777777777777777-777777777777777-5555555555555555-7777777777777777-|
A|-5555555544444444-777777777777777-5555555555555555-7777777777777777-|
E|------------------555555555555555-3333333333333333-5555555555555555-|

Post-chorus:
Guitar I
e|-----------------|
B|-----------------|
G|-----------------|
D|-2-----2/5-------|
A|-2-----2/5-------|
E|-0-----0/3-------|
Guitar II
e|-----------------|
B|-----------------|
G|-----------------|
D|----55-5----55-4-|
A|----xx-x----xx-x-|
E|----33-3----33-2-|

Verse 2:
Guitar I
e|------------------------------------|
B|------------------7-7-7-7-6-6-6-67--|
G|------------------7-7-7-7-7-7-7-77--|
D|------------------------------------|
A|------------------------------------|
E|------------------------------------|
Guitar II                                     x2     
e|------------------------------------|
B|------------------------------------|
G|------------------------------------|
D|------------------------------------|
A|-------------------5555555555555555-|
E|-00000000-33333333------------------|
pm ******** ******** ****************

Pre-chorus
Chorus x2

Bridge:
Guitar I does a little riff over guitar II 
I can't quite figure it out right now, i'll post it later
Guitar II
e|-------------------------------------------------------------------|
B|----------------------------------777777777777777777777777777776---|
G|----------------------------------777777777777777777777777777776---|
D|-99999999999999999999999999999999-555555555555555555555555555554---|
A|-99999999999999999999999999999999----------------------------------|
E|-77777777777777777777777777777777----------------------------------|

Guitar II
e|-------------------------------------------------------------------|
B|-------------------------------------------------------------------|
G|-------------------------------------------------------------------|
D|-99999999999999999999999999999999-55555555555555555555555555555555-|
A|-99999999999999999999999999999999-55555555555555555555555555555555-|
E|-77777777777777777777777777777777-33333333333333333333333333333333-|

Solo (credit goes to ccs127):
Guitar I
e|0h2h3-3-2--2--0h2h3-3-2b--2b--2h3h5-5-3-2-3-2------5-5-5-5-7-7-9979-|
B|---------3--3-----------3---3-----------------3/5-------------------|
G|--------------------------------------------------------------------|
D|--------------------------------------------------------------------|
A|--------------------------------------------------------------------|
E|--------------------------------------------------------------------|
Guitar II
e|--------------------------------------------------------------------|
B|--------------------------------------------------------------------|
G|-7777777777777777---------------------------------------------------|
D|-7777777777777777-777777777777777-5555555555555555-7777777777777777-|
A|-5555555544444444-777777777777777-5555555555555555-7777777777777777-|
E|------------------555555555555555-3333333333333333-5555555555555555-|
Guitar I
e|-10-10b-12bp10-10-|
B|------------------|
G|------------------|
D|------------------|
A|------------------|
E|------------------|
Guitar II
e|------------------|
B|------------------|
G|------------------|
D|-5555555555555555-|
A|-5555555555555555-|
E|-3333333333333333-|

Part before Chorus (clean):
Guitar II
e|-2~--|
B|-3~--|
G|-2~--|
D|-0~--|
A|-x---|
E|-----|

Chorus x1.75

Part after Chorus:
Guitars I,II (Last Chord only Guitar II)
e|----------------|
B|----------------|
G|------------7~~-|
D|-7-7-7-7----7~~-|
A|-7-7-7-7----5~~-|
E|-5-5-5-5--------|

Outro:
Guitar I
e|----5---5---5---5---5---5---5---5-|
B|--3---3---3---3---3---3---3---3---|
G|---2-------2-------2-------2---2--|
D|-2---2-4-0-----2-4---4-5-2---2----|  repeat a few times (fades away)
A|-------------4--------------------|
E|----------------------------------|     
 
            
Submit corrections


        Im Waiting lessons Hard to play? Try these video lessons and learn fast Im Waiting lessons
        
↑ Back to top | Tablatures and chords for acoustic guitar and electric guitar, ukulele, drums are parodies/interpretations of the original songs. You may use it for private study, scholarship, research or language learning purposes only