» » »

The All American Rejects - Dirty Little Secret Bass

Artists:  A B C D E F G H I J K L M N O P Q R S T U V W X Y Z # 

Dirty Little Secret Bass

(ver. 1) Click to play this song!
The All American Rejects
 Rating:
4/5 (4 votes)

 Dirty Little Secret lessons Tabs too difficult? Try these video lessons and learn fast
 
                			     Dirty Little Secret – All-American Rejects


I’m almost 100% sure this is completely right, but if there’s any problems just 
leave a comment or shoot me an email.

Tuning: Standard


[Intro]
Bass comes in on third time through

G|---------------------------------------------------|
D|---------------------------------------66666666----|
A|-------------------------------------6-------------|
E|-4/66666666-44444444-66666666-4444444--------------|

[Verse 1]
Rest for two times through again

G|---------------------------------------------------|
D|---------------------------------------------------|
A|-33333333333-5-33----------------5-33--------------|
E|------------------55-33333333333------55-----------|

G|---------------------------------------------------|
D|-------------------------------------33------------|
A|-6666666666-5-6-8/10-8888888-----------------------|
E|-----------------------------8-111111--------------|

[Chorus]

G|---------------------------------------|    |-8---8---|
D|---------------------------------------|    |---8---8~|
A|--------88-66666666--------------------| x2 |---------|
E|-666666-------------33333333-11111111--|    |---------|

[Verse 2]

G|---------------------------------------------------|
D|---------------------------------------------------|
A|---------88888888-10101010101010-8-66666666--------| x2
E|-66666666------------------------------------------|

G|---------------------------------------------------|
D|---------------------------------------------------|
A|-33333333333-5-33----------------5-33--------------|
E|------------------55-33333333333------55-----------|

G|---------------------------------------------------|
D|-------------------------------------33------------|
A|-6666666666-5-6-8/10-8888888-----------------------|
E|-----------------------------8-111111--------------|

[Chorus 2]

G|---------------------------------------|    |-8---8---|
D|---------------------------------------|    |---8---8~|
A|--------88-66666666--------------------| x2 |---------|
E|-666666-------------33333333-11111111--|    |---------|

[Bridge]

G|---------------------------------------------------------------------------|
D|---------------------------------------------------------------------------|
A|-----------666666---------------66666666-5555555555555555-3333333333333333-|
E|-333333-11--------5-6-333333-11--------------------------------------------|

G|--------------------------------------------|
D|--------------------------------------------|
A|--------------------------------------------| x2
E|-66666666-44444444-66666666-44444444--------|

Rest for one time through

G|--------------------------------------------|
D|--------------------------------------------|
A|----------666666----------------------------|
E|-4/666666--------333333-11111111------------|

[Chorus 3]

G|----------------------------------------------------------------------------|
D|----------------------------------------------------------------------------|
A|--------88-66666666-----------------66--------88-66666666-------------------|
E|-666666-------------33333333-111111----666666-------------33333333-11111111-|

[Outro]

G|--------------------------------------------|
D|--------------------------------------------|
A|-66666666-88888888-1010101010101010-11~-----|
E|--------------------------------------------|

Rest for one time through the guitar line.

G|--------------------------------------------|
D|--------------------------------------------|
A|--------------------------------------------|
E|-\66666666-44444-2-1~-----------------------|


| /  slide up
| \  slide down
| h  hammer-on
| p  pull-off
| ~  vibrato
| +  harmonic
| x  Mute note
            
Submit corrections


        Dirty Little Secret lessons Hard to play? Try these video lessons and learn fast Dirty Little Secret lessons
        
↑ Back to top | Tablatures and chords for acoustic guitar and electric guitar, ukulele, drums are parodies/interpretations of the original songs. You may use it for private study, scholarship, research or language learning purposes only