» » »

The All American Rejects - Damn Girl Tabs

Artists:  A B C D E F G H I J K L M N O P Q R S T U V W X Y Z # 

Damn Girl Tabs

(ver. 4) Click to play this song!
The All American Rejects
 Rating:
4.7/5 (12 votes)

 Damn Girl lessons Tabs too difficult? Try these video lessons and learn fast
 
                -------------------------------------------------------------------------------
			     SONG NAME - Band Name
-------------------------------------------------------------------------------

Tuning: Drop D

Now what you have to know about this tab is that there isn’t really a harmonic guitar,
some other sound in the background I couldn’t make out, though I got the notes. I put the
of a harmonic guitarist in just to add more playing flexibility and have an excuse for 
that instrument was at the beginning. I’m about 95% accurate in this tab, so if you

Intro/verse Lead       Measure 11	Clean PM
e|--------------------------------------------------------------------------------|
B|--------------------------------------------------------------------------------|
G|--------------------------------------------------------------------------------|
D|-----12-12-12-12-12-12-12-12-10-10-10-10-10-10-10-10-10-10-10-10-10-10-10-10----|
A|-----10-10-10-10-10-10-10-10--8--8--8--8--8--8--8--8--8--8--8--8--8--8--8--8----|
E|--------------------------------------------------------------------------------|
PM
e|---------------------------|
B|---------------------------|
G|---------------------------|
D|-----8-8-8-8-8-8-10-10-----|
A|-----6-6-6-6-6-6-8--8------|x2
E|---------------------------|

Intro Rhythm     Distorted PM	x10	Clean PM	Verse	x2
e|--------------------|----------------------------------------------------------------|
B|--------------------|----------------------------------------------------------------|
G|--------------------|----------------------------------------------------------------|
D|-----5-5-5-5-5-5-5-5|-5-5-5-5-5-5-5-5-3-3-3-3-3-3-3-3-3-3-3-3-3-3-3-3-1-1-1-1-1-1-1-1|
A|-----5-5-5-5-5-5-5-5|-5-5-5-5-5-5-5-5-3-3-3-3-3-3-3-3-3-3-3-3-3-3-3-3-1-1-1-1-1-1-1-1|
D|-----5-5-5-5-5-5-5-5|-5-5-5-5-5-5-5-5-3-3-3-3-3-3-3-3-3-3-3-3-3-3-3-3-1-1-1-1-1-1-1-1|

Intro/verse Harmonic	Clean PM
e|------------------------------------------|
B|------------------------------------------|
G|--7h9-10-10---10------7h9-10-7-----8-8-10-|
D|------------8-----8-------------6---------|
A|------------------------------------------|
E|------------------------------------------|

Pre-chorus Lead      Clean                                              x2
e|-------------------------------------------------------------------|---------------|
B|--8--8--8--8-10-11--11--11--11-10-10--10--10--10-11-13--13--13--13-|-11--11--11--11|
G|--7--7--7--7----10--10--10--10-----7---7---7---7----10--10--10--10-|-10--10--10--10|
D|-------------------------------------------------------------------|---------------|
A|-------------------------------------------------------------------|---------------|
E|-------------------------------------------------------------------|---------------|

Pre-chorus Rhythm	Distorted PM	x4
e|-------------------------------------------------------------------------|--------|
B|-------------------------------------------------------------------------|--------|
G|-------------------------------------------------------------------------|--------|
D|--5-5-5-5-5-5-5-5-8-8-8-8-8-8-8-8-7-7-7-7-7-7-7-7-10-10-10-10-10-10-10-10|-8-8-8-8|
A|--5-5-5-5-5-5-5-5-8-8-8-8-8-8-8-8-7-7-7-7-7-7-7-7-10-10-10-10-10-10-10-10|-8-8-8-8|
D|--5-5-5-5-5-5-5-5-8-8-8-8-8-8-8-8-7-7-7-7-7-7-7-7-10-10-10-10-10-10-10-10|-8-8-8-8|


Harmonic Pre-chorus	Distorted
e|-------------|
B|-------------|
G|--3/5----5/7-|
D|--3/5----5/7-|
A|--1/3----3/5-|
E|-------------|

Lead Chorus x2	Distorted
e|--------------------------------------------------------------------------------|
B|-11-11-11-11-11-11-11-11-10-10-10-10-10-10-10-10--------------------------------|
G|-10-10-10-10-10-10-10-10-10-10-10-10-10-10-10-10-8-8-8-8-8-8-8-8-8-8-8-8-8-8-8-8|
D|-------------------------------------------------8-8-8-8-8-8-8-8-8-8-8-8-8-8-8-8|
A|-------------------------------------------------6-6-6-6-6-6-6-6-6-6-6-6-6-6-6-6|
E|--------------------------------------------------------------------------------|

Rhythm Chorus x2	Heavy Distortion
e|-------------------------------------------------|
B|-------------------------------------------------|
G|-------------------------------------------------|
D|--8-8-----3-3-----1-1-1-1-1-1-1-1-1-1-1-1-1-1-1-1|
A|--8-8-----3-3-----1-1-1-1-1-1-1-1-1-1-1-1-1-1-1-1|
D|--8-8-----3-3-----1-1-1-1-1-1-1-1-1-1-1-1-1-1-1-1|

Harmonic Chorus x2	Distorted
e|-------------------------------------------------|
B|-------------------------------------------------|
G|--3-3-------------8-8-8-8-8-8-8-8-8-8-8-8-8-8-8-8|
D|--3-3-----3-3-----8-8-8-8-8-8-8-8-8-8-8-8-8-8-8-8|
A|--1-1-----3-3-----6-6-6-6-6-6-6-6-6-6-6-6-6-6-6-6|
E|----------1-1------------------------------------|

Lead Instrumental
e|-------------------------------------------------------------------------|
B|------------6--------------6---------------6-----------------------------|
G|--------------7--------------7--------------7----8----8-8-8-8-7---5-/-7--|
D|-------------------------------------------------------------------------|
A|----3-/-5----------3-/-5----------3-/-5----------------------------------|
E|-------------------------------------------------------------------------|

Rhythm Vamps on Verse until instrumental ends.
Harmonic does not play until instrumental ends.

Verse Two: Lead repeats standard verse.
Verse Two: Rhythm Repeats standard Verse.
Verse Two Harmonic x2	Clean
e|--3-3-x-3-3----1-1-x-1-1-----1-1-x-1-1---------------|
B|--3-3-x-3-3----1-1-x-1-1-----1-1-x-1-1-----8-8-x-8-8-|
G|--3-3-x-3-3----2-2-x-2-2-----2-2-x-2-2-----8-8-x-8-8-|
D|--5-5-x-5-5----3-3-x-3-3-----3-3-x-3-3-----8-8-x-8-8-|
A|--5-5-x-5-5----3-3-x-3-3-----3-3-x-3-3---------------|
E|--3-3-x-3-3----1-1-x-1-1-----1-1-x-1-1---------------|

Lead plays standard Pre-chorus.
Rhythm plays standard Pre-chorus.
Harmonic plays standard Pre-chorus.

Lead plays standard chorus extended on last chord two measures.
Rhythm plays standard chorus extended on last chord two measures.
Harmonic plays standard chorus extended on last chord two measures.

Lead Bridge	Distorted
e|----------------------------------------------------------------|
B|----------------------------------------------------------------|
G|--5-5-5-7--3-3-3-3-3-3-3-3--14-14-14-15--12-12-12-12-12-12-12-12|
D|----------------------------------------------------------------|
A|----------------------------------------------------------------|
E|----------------------------------------------------------------|

e|----------------------------------------------------------------|
B|-----------------------------------1-1-1-1-3-3-3-3-4-4-4-4-3-3-3|
G|--5-5-5-7--3-3-3-3-3-3-3-3--------------------------------------|
D|----------------------------------------------------------------|
A|----------------------------------------------------------------|
E|----------------------------------------------------------------|

Rhythm Bridge	Distorted
e|-----------------------------------------------------------------|
B|-----------------------------------------------------------------|
G|-----------------------------------------------------------------|
D|--3-3-3-5--1~~~------12-12-12-13--10~~~----3-3-3-5--1~~~----1----|
A|--3-3-3-5--1~~~------12-12-12-13--10~~~----3-3-3-5--1~~~----1-x15|
E|--3-3-3-5--1~~~------12-12-12-13--10~~~----3-3-3-5--1~~~----1----|

Harmonic Bridge	Distorted
e|-----------------------------------------------------------------|
B|-----------------------------------------------------------------|
G|--------------------------7-7-7-9--5~~~--------------------------|
D|--3-3-3-5--1~~~-----------7-7-7-9--5~~~----3-3-3-5--1~~~----1----|
A|--3-3-3-5--1~~~-----------5-5-5-7--3~~~----3-3-3-5--1~~~----1-x15|
E|--3-3-3-5--1~~~----------------------------3-3-3-5--1~~~----1----|

Lead Chorus 3	Distorted
e|--------------------------------------------------------------------------------|
B|-11-11-11-11-11-11-11-11-10-10-10-10-10-10-10-10--------------------------------|
G|-10-10-10-10-10-10-10-10-10-10-10-10-10-10-10-10-8-8-8-8-8-8-8-8-8-8-8-8-8-8-8-8|
D|-------------------------------------------------8-8-8-8-8-8-8-8-8-8-8-8-8-8-8-8|
A|-------------------------------------------------6-6-6-6-6-6-6-6-6-6-6-6-6-6-6-6|
E|--------------------------------------------------------------------------------|

Rhythm does not play for one measure. Play chorus four times extending the last chord of
fourth time two measure.
Harmonic does not play for one measure. Play chorus four times extending the last chord
the fourth time two measure.

OUTRO
Lead plays standard instrumental and first two measures of verse and ends on Eb5.
Rhythm plays standard instrumental and first two measures of verse and ends on Eb5.
Harmonic guitar does not play in instrumental. Plays first two measures of verse two
and ends on Eb chord.

| /  slide up
| \  slide down
| h  hammer-on
| p  pull-off
| ~  vibrato
| +  harmonic
| x  Mute note
=========================================================================================
            
Submit corrections


        Damn Girl lessons Hard to play? Try these video lessons and learn fast Damn Girl lessons
        
↑ Back to top | Tablatures and chords for acoustic guitar and electric guitar, ukulele, drums are parodies/interpretations of the original songs. You may use it for private study, scholarship, research or language learning purposes only