Home » T » The Album Leaf »

The Album Leaf - Essex Tabs

Artists:  A B C D E F G H I J K L M N O P Q R S T U V W X Y Z # 

Essex Tabs

(ver. 1) Click to play this song!
The Album Leaf
so far this is all i`ve got..working on the rest of the song..



INTRO
E|----------------------------------------------------------------|
B|----------------------------------------------------------------|
G|--------------14------------------------------------------------|
D|---14--16~~-------------12--------14--16~~----------------------|
A|--------------------16----------------------14-16---16--17------|
E|----------------------------------------------------------------|



E|----------------------------------------------------------------|
B|----------------------------------------------------------------|
G|-------18------------------19--------14-----------------16------|
D|-14-16-----14-16~--14--16---------12---------12~-----12---------|
A|-------------------------------16---------16-------16-----------|
E|----------------------------------------------------------------|



E|----------------------------------------------------------------|
B|----------------------------------------------------------------|
G|--------------14------------------------------------------------|
D|---14--16~~-------------12--------14--16~~----------------------|
A|--------------------16----------------------14-16---16--17------|
E|----------------------------------------------------------------|


E|----------------------------------------------------------------|
B|----------------------------------------------------------------|
G|-------18------------------19--------14-----------------16------|
D|-14-16-----14-16~--14--16---------12---------12~-----12---------|
A|-------------------------------16---------16-------16-----------|
E|----------------------------------------------------------------|


E|----------------------------------------------------------------|
B|----------------------------------------------------------------|
G|--12~--11---9~~-------------------------------------------------|
D|---------------11h12---12-9-12-16-14---12-9-12-16-14--12-9-12-16|
A|----------------------------------------------------------------|
E|----------------------------------------------------------------|
                                         ^
the second time he plays the thing above ^...he ends it with this

E|----------------------------------------------------------------|
B|----------------------------------------------------------------|
G|----------------------------------------------------------------|
D|----12--9--12---11--7--11---------------------------------------|
A|----------------------------------------------------------------|
E|----------------------------------------------------------------|


E|----------------------------------------------------------------|
B|----------------------------------------------------------------|
G|--------------14------------------------------------------------|
D|---14--16~~-------------12--------14--16~~----------------------|
A|--------------------16----------------------14-16---16--17------|
E|----------------------------------------------------------------|


E|----------------------------------------------------------------|
B|----------------------------------------------------------------|
G|-------18------------------19--------14-----------------16------|
D|-14-16-----14-16~--14--16---------12---------12~-----12---------|
A|-------------------------------16---------16-------16-----------|
E|----------------------------------------------------------------|


E|----------------------------------------------------------------|
B|----------------------------------------------------------------|
G|--12~--11---9~~-------------------------------------------------|
D|---------------11h12---12-9-12-16-14---12-9-12-16-14--12-9-12-16|
A|----------------------------------------------------------------|
E|----------------------------------------------------------------|
            
Submit corrections

↑ Back to top | Tablatures and chords for acoustic guitar and electric guitar, ukulele, drums are parodies/interpretations of the original songs. You may use it for private study, scholarship, research or language learning purposes only