» » »

The Abuse - Soapbox Tradgedy Bass

Artists:  A B C D E F G H I J K L M N O P Q R S T U V W X Y Z # 

Soapbox Tradgedy Bass

(ver. 1) Click to play this song!
The Abuse
 Rating:
4/5 (4 votes)
                Soapbox Tradgedy by: The Abuse
written by Timothy Ayers (bassline)
upbeat

|12-12-12-10-------------------|
|------------12-10-------------|
|------------------12-12-10-10-| Also intro Play X2
|------------------------------| Play X5 (Chorus)

|-12--10------------|
|--------12-10------|
|--------------12-10|
|-------------------| Play X7 repeat this process X3 including chorus

|-12-------12--------------------|
|----10-12-----------10----------|
|--------------10-12----------10-|
|-----------------------10-12----| Outro Play X2
            
Submit corrections

↑ Back to top | Tablatures and chords for acoustic guitar and electric guitar, ukulele, drums are parodies/interpretations of the original songs. You may use it for private study, scholarship, research or language learning purposes only