Home » T » The 1975 »

The 1975 - Chocolate Bass

Artists:  A B C D E F G H I J K L M N O P Q R S T U V W X Y Z # 

Chocolate Bass

(ver. 1) Click to play this song!
The 1975
Tuning: Standard E A D G

Intro
G|---------------------------------------------------------------|
D|---------------------------------------------------------------|   
A|---------------------------------------------------------------|
E|---7---7-7-7-77--0---0-2-2-02--4---4-4-4-44--0-2-4-6-----------|

Verse
G|---------------------------------------------------------------|
D|----2----4----6----8-8----2----4----6----8-8-------------------|   
A|---------------------------------------------------------------|
E|---0---22---44---66-6----0---22---44---66-6--------------------|

Chorus(Same as Intro)
G|---------------------------------------------------------------|
D|---------------------------------------------------------------|   
A|---------------------------------------------------------------|
E|---7---7-7-7-77--0---0-2-2-02--4---4-4-4-44--0-2-4-6-----------|

This Is All I could Figure Out When Listening To The Song, Hope It Helps
            
Submit corrections

↑ Back to top | Tablatures and chords for acoustic guitar and electric guitar, ukulele, drums are parodies/interpretations of the original songs. You may use it for private study, scholarship, research or language learning purposes only