Home » T » That Handsome Devil »

That Handsome Devil - Elephant Bones Bass

Artists:  A B C D E F G H I J K L M N O P Q R S T U V W X Y Z # 

Elephant Bones Bass

(ver. 1) Click to play this song!
That Handsome Devil
I searched all night for these tabs
without luck so I wrote them on my
own. Enjoy!


|-VERSE--|-VERSE--|-VERSE--|-VERSE--|
|5--30-3-|5--30-3-|5--30-3-|5--30-3-|
|--------|--------|--------|--------|
|--------|--------|--------|--------|

|-VERSE--|-VERSE--|-VERSE--|-VERSE--|
|5--30-3-|5--30-3-|5--30-3-|5--30-3-|
|--------|--------|--------|--------|
|--------|--------|--------|--------|

|-VERSE--|-VERSE--|-VERSE--|-VERSE--|
|4--2--2-|4--2--2-|4--2--2-|4--2--2-|
|----4---|----4---|----4---|----4---|
|--------|--------|--------|--------|

|-VERSE--|-VERSE--|-VERSE--|-VERSE--|
|5--30-3-|5--30-3-|5--30-3-|5-------|
|--------|--------|--------|--------|
|--------|--------|--------|--------|


|-CHORUS-|-CHORUS-|-CHORUS-|-CHORUS-|
|--------|--------|--------|--------|
|-----1-3|-13431--|-----1--|--------|
|3--33---|------3-|3--33--1|-11-11-1|


|--SOLO--|--SOLO--|--SOLO--|--SOLO--|
|--------|--------|--------|--------|
|-----113|313431--|-----1--|--------|
|33333---|------3-|33333--1|11111111|


|END-|
|----|
|----|
|3---|

ORDER
Verse-1
Chorus-4
Verse-1
Chorus-4
Solo-6
Verse-1
Chorus-4
Solo-4
End-1


IM me if you have any questions- RobPacksHeat
            
Submit corrections

↑ Back to top | Tablatures and chords for acoustic guitar and electric guitar, ukulele, drums are parodies/interpretations of the original songs. You may use it for private study, scholarship, research or language learning purposes only