» » »

T.G. Sheppard - I Loved 'em Every One Tabs

Artists:  A B C D E F G H I J K L M N O P Q R S T U V W X Y Z # 

I Loved 'em Every One Tabs

(ver. 1) Click to play this song!
T.G. Sheppard
 Rating:
4/5 (4 votes)

 I Loved 'em Every One lessons Tabs too difficult? Try these video lessons and learn fast
 
                I Loved 'Em Every One lead:

guitar 1                                                     
e--------14-13-12------10-9-8--------12-11-10--------14-13-12-
b----12--------------8-----------10--------------12-----------
g---12-12-----------9-9---------11-11-----------12-12---------
d-14--------------10----------12--------------14--------------
a-------------------------------------------------------------
e-------------------------------------------------------------

the ending
e-------14-13-12------10-9-8-------12-11-10~~/12~~~~
b---12--------------8----------10-------------------
g--12-12-----------9-9--------11-11-----------------
d-14-------------10----------12---------------------
a---------------------------------------------------
e---------------------------------------------------

guitar 2                     keep repeating
e-12-12--12--12--12-12--12-15----------------
b------15------15-----15---------------------
g--------------------------------------------
d--------------------------------------------
a--------------------------------------------
e--------------------------------------------
            
Submit corrections


        I Loved 'em Every One lessons Hard to play? Try these video lessons and learn fast I Loved 'em Every One lessons
        
↑ Back to top | Tablatures and chords for acoustic guitar and electric guitar, ukulele, drums are parodies/interpretations of the original songs. You may use it for private study, scholarship, research or language learning purposes only