» » »

Texas - So In Love With You Tabs

Artists:  A B C D E F G H I J K L M N O P Q R S T U V W X Y Z # 

So In Love With You Tabs

(ver. 1) Click to play this song!
Texas
 Rating:
4/5 (4 votes)

 So In Love With You lessons Tabs too difficult? Try these video lessons and learn fast
 
                
---------------------------

Am                  D
I'm so in love with you
F                   G
I'm so in love with you
Am
Whether it is right or it's wrong
D
I'm too weak to be strong
F                   G
I'm so in love with you

         C                Em
Well you say you need something
   Am                    F        G
To help you where you're down, to take your fears away
        C               Em
Yeh you say you'd do anything
   Am                     F
To keep your feet off the ground
    G                     Em
And help you on your way
F            G
You're all I need
F                      G    Em
Yeh you are all that I need

I'm so in love with you         *
I'm so in love with you
Whether it is right or it's wrong
I'm too weak to be strong
I'm so in love with you

When you see your reflection
You say it isn't you
Then you turn the other way
And I'm watching you suffer
Yourself and your pain
Please don't fade away

----------------------------------

* : you can there play an arpegio with the previous chords that
    you may modify in Am, Dsus2,Fmaj7 and G* :


   Am               Dsus2            Fmaj7            G*

e------0--------0-------0-------0--------0-------0--------0-------0------
B----1--1-1---1--1----3--3-3--3--3-3---1--1-1--1--1-1---3--3-3--3--3-3---
G---2-2--2---2-2--2--2-2--2--2-2--2---2-2--2--2-2--2---0-0--0--0-0--0----
D-----------2-------0-------0--------3-------3----------------0----------
A--0---------------------------------------------------------------------
E-----------------------------------------------------3------------------

It sounds very nice with two guitars : an acoustic one which plays the chords, and an
electric one can play the arpegio with a cool sound like the record.
            
Submit corrections


        So In Love With You lessons Hard to play? Try these video lessons and learn fast So In Love With You lessons
        
↑ Back to top | Tablatures and chords for acoustic guitar and electric guitar, ukulele, drums are parodies/interpretations of the original songs. You may use it for private study, scholarship, research or language learning purposes only