» » »

Texas - I Dont Want A Lover Bass

Artists:  A B C D E F G H I J K L M N O P Q R S T U V W X Y Z # 

I Dont Want A Lover Bass

(ver. 1) Click to play this song!
Texas
 Rating:
4.3/5 (22 votes)


 I Dont Want A Lover lessons Tabs too difficult? Try these video lessons and learn fast
 
                (0:32)
G|-------------------------------------------------------------------|
D|-------------------------------------------------------------------| (x6)
A|--5-5-5-5-5-5-5-5-5-5-5-5-5-5-5-5-5-5-5-5-5-5-5-5-5-5-5-5-5-5-5-5--|
E|-------------------------------------------------------------------|

G|-----------------------------------------------------|
D|-------------------2-2-2-2-2-2-2-2-------------------| (x2)
A|--3-3-3-3-3-3-3-3-------------------5-5-5-5-5-5-5-5--|
E|-----------------------------------------------------|
                       
G|-------------------|        G|-----------------------------------|
D|-------------------| (x4)   D|-----------------------------------|
A|--5-5-5-5-5-5-5-5--|        A|-----------------------------------|
E|-------------------|        E|--3-3-3-3-3-3-3-3-5-5-5-5-3-3-3-3--|

G|-------------------|            
D|-------------------| (x10)   
A|--5-5-5-5-5-5-5-5--|        
E|-------------------|        

(2:08)
G|-----------------------------------------------------|
D|-------------------2-2-2-2-2-2-2-2-------------------| (x2)
A|--3-3-3-3-3-3-3-3-------------------5-5-5-5-5-5-5-5--|
E|-----------------------------------------------------|

G|-------------------|        G|-----------------------------------|
D|-------------------| (x4)   D|-----------------------------------|
A|--5-5-5-5-5-5-5-5--|        A|-----------------------------------|
E|-------------------|        E|--3-3-3-3-3-3-3-3-5-5-5-5-3-3-3-3--|

G|-------------------|        G|-----------------------------------|
D|-------------------| (x6)   D|-----------------------------------|
A|--5-5-5-5-5-5-5-5--|        A|-----------------------------------|
E|-------------------|        E|--3-3-3-3-3-3-3-3-5-5-5-5-3-3-3-3--|

                              (2:58)                                          
G|-------------------|        G|--------------------------------------|
D|-------------------|        D|--------------------------------------| (x2)
A|--5-5-5-5-5-5-5-5--|        A|--------------------------------------|
E|-------------------|        E|--5-5-5-5-5-5-5-5----3-3-3-3-3-3-3-3--|

(3:09)                         
G|----------|                 G|-------------------|            
D|--2-------|                 D|-------------------| (x4)
A|-------5--|                 A|--5-5-5-5-5-5-5-5--|        
E|----------|                 E|-------------------|        

G|-----------------------------------------------------|
D|-------------------2-2-2-2-2-2-2-2-------------------| 
A|--3-3-3-3-3-3-3-3-------------------5-5-5-5-5-5-5-5--|
E|-----------------------------------------------------|
                       
G|-------------------|        G|-----------------------------------|
D|-------------------| (x8)   D|-----------------------------------|
A|--5-5-5-5-5-5-5-5--|        A|-----------------------------------|
E|-------------------|        E|--3-3-3-3-3-3-3-3-5-5-5-5-3-3-3-3--|
                                      ______________
G|-----------------------------------|              |        
D|-----------------------------------| (x3)         |   
A|--5-5-5-5-5-5-5-5-5-5-5-5-5-5-5-5--|              |       
E|-----------------------------------|              | (x4)    
                                                    |
G|-----------------------------------|              |
D|-----------------------------------|              |    
A|-----------------------------------|              |
E|--3-3-3-3-3-3-3-3-5-5-5-5-3-3-3-3--|______________|            
Submit corrections



        I Dont Want A Lover lessons Hard to play? Try these video lessons and learn fast I Dont Want A Lover lessons
        
↑ Back to top | Tablatures and chords for acoustic guitar and electric guitar, ukulele, drums are parodies/interpretations of the original songs. You may use it for private study, scholarship, research or language learning purposes only