» » »

Tessa Violet - Bird Song Tabs

Artists:  A B C D E F G H I J K L M N O P Q R S T U V W X Y Z # 

Bird Song Tabs

(ver. 1) Click to play this song!
Tessa Violet
 Rating:
4.3/5 (15 votes)

 Bird Song lessons Tabs too difficult? Try these video lessons and learn fast
 
                [Intro]

e|---4-4---|
B|-5-------|
G|---------|
D|---------|    x 4
A|---------|
E|---------|

[Verse] 

     E                       A                      E

e|---4-4---|           e|---5-5---|           e|---4-4---|
B|-5-------|           B|-5-------|           B|-5-------|
G|---------|           G|---------|           G|---------|
D|---------|    x 8    D|---------|    x 4    D|---------|    x 4    
A|---------|           A|---------|           A|---------|
E|---------|           E|---------|           E|---------|

I've been pacing
around my room
thinking about how
I like the color..      ...blue...            ..it reminds me of you.

Repeat once.

I saw a bug on the window pane
I saw a drop followed by the rain
Ah-ooh, it reminds me of you.

[Chorus]

e|---5-5------5-5------4-4------4-4---|
B|-5--------7--------5----------------|
G|----------------------------6-------|
D|------------------------------------|    x 2
A|------------------------------------|
E|------------------------------------|

And you've got me thinking about
All of your freckles and the corners of your mouth
Do you think that I'm weird?
I like your kisses and I wish that

e|---5-5------5-5------4-4------4-4---|
B|-5--------7--------7--------5-------|
G|------------------------------------|
D|------------------------------------|
A|------------------------------------|
E|------------------------------------|

you were here all the time
I got you on my mind

e|---5-5------5-5----5~-----|
B|-5--------5--------4~-----|
G|--------------------------|
D|--------------------------|
A|--------------------------|
E|--------------------------|

All I do, reminds me of you

Plucking speed is faster from up this point until the end.

[Repeat Verse Tabs]

I met a bird and he sang a song
He took the melody while I sang along
But I could have been wrong

He told a story about a girl
I'm pretty sure that I understood the words
But I don't speak much bird

[Repeat Chorus Tabs]

For the instrumental bit:

[Repeat Verse Tabs]

For the bird solo

e|-2--4-4-4--2--0-----0-----0----------0--4~---------------------------------|
B|-----------------2-----0-----2---------------------------------------------|
G|---------------------------------------------------------------------------|
D|---------------------------------------------------------------------------|
A|---------------------------------------------------------------------------|
E|---------------------------------------------------------------------------|

e|-4--0--4--7--9-7--9-7--4-0---|           e|-5~--|
B|-----------------------------|           B|-----|
G|-----------------------------|           G|-----|
D|-----------------------------|    x 2    D|-----|
A|-----------------------------|           A|-----|
E|-----------------------------|           E|-----|

[Repeat Chorus Tabs]

[Outro]

e|---4-4------4-4-----------|
B|-5--------5--------5~-----|
G|--------------------------|
D|--------------------------|
A|--------------------------|
E|--------------------------|            
Submit corrections


        Bird Song lessons Hard to play? Try these video lessons and learn fast Bird Song lessons
        
↑ Back to top | Tablatures and chords for acoustic guitar and electric guitar, ukulele, drums are parodies/interpretations of the original songs. You may use it for private study, scholarship, research or language learning purposes only