Home » T » Terrorgruppe »

Terrorgruppe - Wir MüSsen Raus Bass

Artists:  A B C D E F G H I J K L M N O P Q R S T U V W X Y Z # 

Wir MüSsen Raus Bass

(ver. 1) Click to play this song!
Terrorgruppe
PLZ RATE THIS TAB !!! :D


Habt spass mit dem tab und falls ihr fehler findet, benachrichtigt mich bitte :) THNX


Intro:
G:-----------------------------|
D:--0-------------0-0-4-0------|
A:2---2-0-------4---------0-0--| 10 mal
E:--------2-2------------------|

G:----------------------------------|
D:----------------------------------|
A:5-5-5-5---------------------------|
E:-------5-5-5-5-5-2-2-2-2-3-3-3-3--|

G:----------------------------------|
D:----------------------------------|
A:5-5-5-5---------------------------|
E:-------5-5-5-5-5-2-2-2-2-3-3-3-3--|

G:----------------------------------------------------------------|
D:----------------------------------------------------------------|
A:-5-5-5-5-5-5-5-0-0-0-0-0-0-0-0-2-2-2-2-2-2-2-2------------------|
E:-----------------------------------------------3-3-3-3-3-3-3-3--|
                                     
G:-------------------------------------------------------------------------|
D:-------------------------------------------------------------------------|
A:-5-5-5-5-5-5-5-0-0-0-0-0-0-0-0-2-2-2-2-2-2-2-2---------------------------|
E:-----------------------------------------------3-3-3-3-3-3-3-3--5--5--5--|

G:-----------------------------|
D:--0-------------0-0-4-0------|
A:2---2-0-------4---------0-0--| 10 mal
E:--------2-2------------------|

G:----------------------------------|
D:----------------------------------|
A:5-5-5-5---------------------------|
E:-------5-5-5-5-5-2-2-2-2-3-3-3-3--|

G:----------------------------------|
D:----------------------------------|
A:5-5-5-5---------------------------|
E:-------5-5-5-5-5-2-2-2-2-3-3-3-3--|

G:----------------------------------------------------------------|
D:----------------------------------------------------------------|
A:-5-5-5-5-5-5-5-0-0-0-0-0-0-0-0-2-2-2-2-2-2-2-2------------------|
E:-----------------------------------------------3-3-3-3-3-3-3-3--|
                                     
G:----------------------------------------------------------------------------|
D:----------------------------------------------------------------------------|
A:-5-5-5-5-5-5-5-0-0-0-0-0-0-0-0-2-2-2-2-2-2-2-2------------------------------|
E:-----------------------------------------------3-3-3-3-3-3-3-3--5--5--5-----|

G:-----------------------------|
D:--0-------------0-0-4-0------|
A:2---2-0-------4---------0-0--|
E:--------2-2------------------|

G:--------------------------------------|
D:---5-4------------0-0-4-0-------------|
A:-------5-0------4---------0-0-----0---|
E:-----------2-2------------------------|

G:-----------------------------|
D:--0-------------0-0-4-0------|
A:2---2-0-------4---------0-0--|
E:--------2-2------------------|

G:-----------------------------|
D:--0-------------0-0-4-0------|
A:2---2-0-------4---------0-0--|
E:--------2-2------------------|

G:-----------------------------|
D:--0-------------0-0-4-0------|
A:2---2-0-------4---------0-0--|
E:--------2-2------------------|

Outro:
G:----------------------------------|
D:----------------------------------|
A:5-5-5-5---------------------------|
E:-------5-5-5-5-5-2-2-2-2-3-3-3-3--|

G:----------------------------------|
D:----------------------------------|
A:5-5-5-5---------------------------|
E:-------5-5-5-5-5-2-2-2-2-3-3-3-3--|

G:----------------------------------------------------------------|
D:----------------------------------------------------------------|
A:-5-5-5-5-5-5-5-0-0-0-0-0-0-0-0-2-2-2-2-2-2-2-2------------------|
E:-----------------------------------------------3-3-3-3-3-3-3-3--|
                                     
G:----------------------------------------------------------------|
D:----------------------------------------------------------------|
A:-5-5-5-5-5-5-5-0-0-0-0-0-0-0-0-2-2-2-2-2-2-2-2------------------|
E:-----------------------------------------------3-3-3-3-3-3-3-3--|

G:----------------------------------|
D:----------------------------------|
A:5-5-5-5---------------------------| 5 Mal, dann schluss :D
E:-------5-5-5-5-5-2-2-2-2-3-3-3-3--|
            
Submit corrections

↑ Back to top | Tablatures and chords for acoustic guitar and electric guitar, ukulele, drums are parodies/interpretations of the original songs. You may use it for private study, scholarship, research or language learning purposes only