Home » T » Terrorgruppe »

Terrorgruppe - Sozialer Misserfolg Tabs

Artists:  A B C D E F G H I J K L M N O P Q R S T U V W X Y Z # 

Sozialer Misserfolg Tabs

(ver. 1) Click to play this song!
Terrorgruppe
 Rating:
4/5 (4 votes)
                INTRO/VERSE
e|------------------------------------------------------------------------------|
B|------------------------------------------------------------------------------|
G|7-7-7-7-7-7-7-----------------------------------------------------------------|
D|5-5-5-5-5-5-5-7-7-7-7-7-7-7-5-5-5-5-5-5-5-5-5-5-5-----------------------------|
A|5-5-5-5-5-5-5-5-5-5-5-5-5-5-3-3-3-3-3-3-3-3-3-3-3-----------------------------|
E|--------------5-5-5-5-5-5-5-3-3-3-3-3-3-3-3-3-3-3-----------------------------|
Viel zu weit .. eher schon die.. mutters Haushalts...
CHORUS
e|-----------------------------------------------------------------------|
B|-----------------------------------------------------------------------|
G|7-7-7-7-7-7-7-----------------------------5-5-5-5-5-5-5----------------|
D|5-5-5-5-5-5-5-8-8-8-8-8-8-8-3-3-3-3-3-3-3-3-3-3-3-3-3-3----------------|
A|5-5-5-5-5-5-5-6-6-6-6-6-6-6-1-1-1-1-1-1-1-3-3-3-3-3-3-3----------------|
E|--------------6-6-6-6-6-6-6-1-1-1-1-1-1-1------------------------------|
Sozialer Misserf. x4
Thats the whole Song I'm not sure if the beat is always right but i think so 
playse mail me if you have tabbed other Terrorgruppe songs
            
Submit corrections

↑ Back to top | Tablatures and chords for acoustic guitar and electric guitar, ukulele, drums are parodies/interpretations of the original songs. You may use it for private study, scholarship, research or language learning purposes only