Home » T » Terrorgruppe »

Terrorgruppe - Keine Airbags FüR Die Csu Tabs

Artists:  A B C D E F G H I J K L M N O P Q R S T U V W X Y Z # 

Keine Airbags FüR Die Csu Tabs

(ver. 1) Click to play this song!
Terrorgruppe
 Rating:
4/5 (4 votes)
                Keine Airbags für die CSU
 (Musik für Arschlöcher)


Intro :

     A                F#
 G|-------------------------------------
 D|--9-11-11-12-11-11---11-11-12-11-11--  2x 
 A|-------------------9-----------------
 E|-------------------------------------

     D              A        E
 G|--11-9----9------------------
 D|-------11-----11/12-11----9--
 A|-----------------------12----
 E|-----------------------------

Verse :  A F# D A E



A                    F#
Auf der Sitzung war nicht viel los 
 D                A      E
Frankenwein verschaffte trost. 
Angesoffen aus dem Parlament 
und am Steuer eingepennt. 
- keine Airbags für die CSU

Grosser Parteitag mit Reden zu Gähnen, 
deshalb fliesst das Bier in Ströhmen. 
Dann nach Haus im neuen Wagen, 
landet man im Strassengraben. 

Refrain :
--------
  D             E         A 
  Keine Airbags für die CSU
  D   C#       B#
  F-D-P  und CDU
       D     E    A  F#
  Auch die SPD da-zu-uu 
  D             E         A 
  Keine Airbags für die CSU!

-Intro

Wahlkampf bis in die späte Nacht 
wurde mit sehr viel Schnaps verbracht. 
Der Rückweg fährt sich dann noch dreister, 
am Baum endet der Bürgermeister 

Keine Airbags für die CSU! 
und FDP und CDU 
auch SPD dazu 
Keine Airbags für die CSU! 

Fill: (palm muted)
------
    A      
 G-------------------------------------
 D--9--11-11--11-11--12--11-11--11-11--
 A-------------------------------------
    F#
 G-------------------------------
 D--------------9--11-11-9-9-----
 A--9--12-12-12--------------12--
     A               F#
Mit Henkel Sekt und Meisterbrand 
befreien wir das ganze Land! 
Mit Bailey's und Maria Cron 
 D                A     E
Für die deutsche Revolution! 
 
Keine Airbags für die CSU!
und FDP und CDU 
auch SPD dazu 
Keine Airbags für die CSU!
            
Submit corrections

↑ Back to top | Tablatures and chords for acoustic guitar and electric guitar, ukulele, drums are parodies/interpretations of the original songs. You may use it for private study, scholarship, research or language learning purposes only