» » »

Terri Clark - I Wanna Do It All Tabs

Artists:  A B C D E F G H I J K L M N O P Q R S T U V W X Y Z # 

I Wanna Do It All Tabs

(ver. 1) Click to play this song!
Terri Clark
 Rating:
4/5 (4 votes)

 I Wanna Do It All lessons Tabs too difficult? Try these video lessons and learn fast
 
                These are some of the fills from this song.

These seem to be close if you got something better please let me know. More to come.
Intro(fill) to “I want to do it all” Terri Clark
 
E---------------------------
B---------------------------
G---------------------------
D-----7--6--4--6--4--4—
A---------------------------
E---------------------------
 
Second fill  pr means pre bend then strike string and release
E---------------------------
B---------------------------
G—pr 2-4------------------------
D-----------2----—
A---------------------------
E---------------------------
 
Third fill
E---------------------------
B------------5---------------
G---------------------------
D-----3/4------4---2-—
A---------------------------
E---------------------------
	
            
Submit corrections


        I Wanna Do It All lessons Hard to play? Try these video lessons and learn fast I Wanna Do It All lessons
        
↑ Back to top | Tablatures and chords for acoustic guitar and electric guitar, ukulele, drums are parodies/interpretations of the original songs. You may use it for private study, scholarship, research or language learning purposes only