» » »

Terri Clark - Girls Lie Too () Tabs

Artists:  A B C D E F G H I J K L M N O P Q R S T U V W X Y Z # 

Girls Lie Too () Tabs

(ver. 1) Click to play this song!
Terri Clark
 Rating:
4/5 (4 votes)

 Girls Lie Too () lessons Tabs too difficult? Try these video lessons and learn fast
 
                Released: May 2004


And thanks to Telemon for getting me started...

------------------------------------------
------------------------------------------
----------4-------------------------------
-----2-2h4--4-2-4--(5-5)r4-2--------------
-2h4-------------------------0------------
------------------------------------------

------------------------------------------
------------------------------------------
----------4--------4b(6)r4----------------
-----2-2h4--4-2-4-----------4-2-----------
-2h4----------------------------0---------
------------------------------------------

h - hammer-on
4b(6) - bend 4th fret to sound like 6th fret
(6)r4 - release bend slowly back down to original note
            
Submit corrections


        Girls Lie Too () lessons Hard to play? Try these video lessons and learn fast Girls Lie Too () lessons
        
↑ Back to top | Tablatures and chords for acoustic guitar and electric guitar, ukulele, drums are parodies/interpretations of the original songs. You may use it for private study, scholarship, research or language learning purposes only