Home » T » Terminaator »

Terminaator - Ainult Sina Võid Mu Maailma Muuta Chords

Artists:  A B C D E F G H I J K L M N O P Q R S T U V W X Y Z # 

Ainult Sina Võid Mu Maailma Muuta Chords

(ver. 1) Click to play this song!
Terminaator
[Intro]
                                     Dm
e|-0-------0-------------0----------|-1-------1-------1-0-------------|
B|-1-------1---------1-3-----3-1----|-3-------3-----------3-----1-3---|
G|-----0-------0---0-------------2--|-----2-------2---------2---------|
D|----------------------------------|-0-------------------------------|
A|-3--------------------------------|---------------------------------|
E|----------------------------------|---------------------------------|
 
 
e|---------------------------0----------|-----------------|
B|-3-------1-3-1----2----0-2---3-2------|-3---------------|
G|-3-----3-------3-----2-----------2----|-2---------------|
D|-----3--------------------------------|-0---------------|
A|-1----------------0-------------------|-----------------|
E|--------------------------------------|-----------------|
 
 
[Verse 1]
C               Dm    C               Dm
Maailm ära väsitanud, hinge maha põletanud,
Dm           Bb   C              Dm              A
kuid siiski, pole lootus läinud, kuigi silmad on valet näinud,
   Bb      A           Dm
et ükskord saan su endale
 
 
[Verse 2]
C                  Dm       C                     Dm
Tuul on segi ajand juuksed, hääletuks on jäänd mu nuuksed
Dm         Bb     C              Dm          A
ja  jälle, seisan siin ja ootan, keelatud ei ole ju loota,
   Bb      A           Dm
et ükskord saan su endale.
 
 
[Chorus]
C                  Dm      C                   Dm
Külmetan ning põhjatuuled, hääl on kähe puruks huuled,
Dm            Bb     C             Dm                       A
siiski hüüan: tahaks minagi suuta, kuid ainult sina võid mu maailma muuta,
Bb      A          Dm
sest sa kuulud minule.
Bb     C             Dm                       A
Tahaks minagi suuta, kuid ainult sina võid mu maailma muuta,
Bb      A          Dm
sest sa kuulud minule.
 
 
[Verse 3]
C                Dm    C                  Dm
Üksi liiga raske olla, tahaks sinu juurde tulla,
Dm              Bb    C            Dm            A
kuid sa ei tohi mulle andeks anda, jalutama muga tulla randa
   Bb        A          Dm
ja öelda, et kuulun sinule
 
 
[Solo]
 F C Dm Am Bb C F C
 F C Dm Am Bb C Dm
 
 
[Verse 4]
C                      Dm     C                        Dm
Sa vaatad mind ja tasa nutad, mu viimse mõistuse mult  võtad,
Dm         Bb            C          Dm           A
kui ütlen armastan sind kahtlemata, kuid ei tohi sind ma tahta,
Bb    A          Dm
kuigi kuulun sinule
 
 
[Chorus]
C                  Dm      C                   Dm
Külmetan ning põhjatuuled, hääl on kähe puruks huuled,
Dm            Bb     C             Dm                       A
siiski hüüan: tahaks minagi suuta, kuid ainult sina võid mu maailma muuta,
Bb      A          Dm
sest sa kuulud minule.
Bb     C             Dm                       A
Tahaks minagi suuta, kuid ainult sina võid mu maailma muuta,
Bb      A          Dm
sest sa kuulud minule.
 
 
[Outro]
Bb     A          Dm
Kuulud ainult minule
            
Submit corrections

↑ Back to top | Tablatures and chords for acoustic guitar and electric guitar, ukulele, drums are parodies/interpretations of the original songs. You may use it for private study, scholarship, research or language learning purposes only