» » »

Tenpole Tudor - Swords Of A Thousand Men Bass

Artists:  A B C D E F G H I J K L M N O P Q R S T U V W X Y Z # 

Swords Of A Thousand Men Bass

(ver. 1) Click to play this song!
Tenpole Tudor
 Rating:
4/5 (4 votes)

 Swords Of A Thousand Men  lessons Tabs too difficult? Try these video lessons and learn fast
 
                Tuning: Standard

Intro
G|----------------------------------------------------------------------|
D|----------------------------------------------------------------------|
A|---2-2-2-2-2-2-2-2-2-2-2-2-2-2-222-2-2-2-2-2-2-2-2-2-2-2-2-2-2-222----|
E|----------------------------------------------------------------------|

G|------------------------------------------------------------------------|
D|------------------------------------------------------------------------|
A|---2-2-2-2-2-2-2-2-2-2-2-2-2-2-222-2-2-2-2-222-2-2-2-2-222-2-2-222/\----|
E|------------------------------------------------------------------------|

G|------------------------------------------------------------------|
D|------------------------------------------------------------------|
A|---0h2--2-2-2-2-2-0h2--2-2-2-2-2-0h2--2-2-2-2-2-0h2--2-2-2-2-2----|
E|------------------------------------------------------------------|

Verse 1
G|------------------------------------------------------------------|
D|------------------------------------------------------------------|
A|---0h2--2-2-2-2-2-0h2--2-2-2-2-2-0h2--2-2-2-2-2-0h2--2-2-2-2-2----|
E|------------------------------------------------------------------|

G|------------------------------------------------------------------|
D|------------------------------------------------------------------|
A|---0h2--2-2-2-2-2-0h2--2-2-2-2-2-0h2--2-2-2-2-2-0h2--4--5--6------|
E|------------------------------------------------------------------|

Chorus
G|-------------------------------------------------------------|
D|-------------------------------------------------------------|
A|---7--5-----5--7--5-----5--7--5-----5--7--5--2--2-2-2-2-2----|
E|---------7-----------7-----------7---------------------------|

G|------------------------------------------------------------------|
D|------------------4--2-----2--4--2-----2--4--2-----2--4-----------|
A|---0h2--2-2-2-2-2-------4-----------4-----------4-----------------|
E|------------------------------------------------------------------|

G|------------------------------------------------------------------|
D|------------------------------------------------------------------|
A|---0h2--2-2-2-2-2-0h2--2-2-2-2-2-0h2--2-2-2-2-2-0h2--2-2-2-2-2----|
E|------------------------------------------------------------------|

Verse 2
G|------------------------------------------------------------------|
D|------------------------------------------------------------------|
A|---0h2--2-2-2-2-2-0h2--2-2-2-2-2-0h2--2-2-2-2-2-0h2--2-2-2-2-2----|
E|------------------------------------------------------------------|

G|------------------------------------------------------------------|
D|------------------------------------------------------------------|
A|---0h2--2-2-2-2-2-0h2--2-2-2-2-2-0h2--2-2-2-2-2-0h2--4--5--6------|
E|------------------------------------------------------------------|

Chorus
G|-------------------------------------------------------------|
D|-------------------------------------------------------------|
A|---7--5-----5--7--5-----5--7--5-----5--7--5--2--2-2-2-2-2----|
E|---------7-----------7-----------7---------------------------|

G|------------------------------------------------------------------|
D|------------------4--2-----2--4--2-----2--4--2-----2--4-----------|
A|---0h2--2-2-2-2-2-------4-----------4-----------4-----------------|
E|------------------------------------------------------------------|

G|------------------------------------------------------------------|
D|------------------------------------------------------------------|
A|---0h2--2-2-2-2-2-0h2--2-2-2-2-2-0h2--2-2-2-2-2-0h2--2-2-2-2-2----|
E|------------------------------------------------------------------|

Guitar Solo
G|------------------------------------------------------------|
D|o----------------------------------------------------------o|
A|o---7--5-----5--7--5-----5--2--2-2-2-2-2-0h2--2-2-2-2-2----o|
E|----------7-----------7-------------------------------------|

G|------------------------------------------------------------|
D|---4--2-----2--4--2-----2--4--------------------------------|
A|---------4-----------4--------------------------------------|
E|------------------------------------------------------------|

G|------------------------------------------------------------------|
D|------------------------------------------------------------------|
A|---0h2--2-2-2-2-2-0h2--2-2-2-2-2-0h2--2-2-2-2-2-0h2--2-2-2-2-2----|
E|------------------------------------------------------------------|

Verse 3
G|------------------------------------------------------------------|
D|------------------------------------------------------------------|
A|---0h2--2-2-2-2-2-0h2--2-2-2-2-2-0h2--2-2-2-2-2-0h2--2-2-2-2-2----|
E|------------------------------------------------------------------|

G|------------------------------------------------------------------|
D|------------------------------------------------------------------|
A|---0h2--2-2-2-2-2-0h2--2-2-2-2-2-0h2--2-2-2-2-2-0h2--4--5--6------|
E|------------------------------------------------------------------|

Chorus
G|-------------------------------------------------------------|
D|-------------------------------------------------------------|
A|---7--5-----5--7--5-----5--7--5-----5--7--5--2--2-2-2-2-2----|
E|---------7-----------7-----------7---------------------------|

G|------------------------------------------------------------------|
D|------------------4--2-----2--4--2-----2--4--2-----2--4-----------|
A|---0h2--2-2-2-2-2-------4-----------4-----------4-----------------|
E|------------------------------------------------------------------|

G|------------------------------------------------------------------|
D|------------------------------------------------------------------|
A|---0h2--2-2-2-2-2-0h2--2-2-2-2-2-0h2--2-2-2-2-2-0h2---------------|
E|------------------------------------------------------------------|

Hurrah, Hurrah, Hurrah, Yeah!
G|-----------------------------------------------------|
D|---4--2-----2--4--2-----2--4--2-----2--4--2-----2----|
A|---------4-----------4-----------4-----------4-------|
E|-----------------------------------------------------|

G|------------------------------------------------------------------|
D|------------------------------------------------------------------|
A|---0h2--2-2-2-2-2-0h2--2-2-2-2-2-0h2--2-2-2-2-2-0h2--2-2-2-2-2----|
E|------------------------------------------------------------------|

G|-----------------------------------------------------|
D|---4--2-----2--4--2-----2--4--2-----2--4--2-----2----|
A|---------4-----------4-----------4-----------4-------|
E|-----------------------------------------------------|

G|------------------------------------------------2/4--4-4-4-4-4----|
D|------------------------------------------------------------------|
A|---0h2--2-2-2-2-2-0h2--2-2-2-2-2-0h2--2-2-2-2-2-------------------|
E|------------------------------------------------------------------|

G|-----------------------------------------------------|
D|---4--2-----2--4--2-----2--4--2-----2--4--2-----2----|
A|---------4-----------4-----------4-----------4-------|
E|-----------------------------------------------------|

G|------------------------------------------------------------------|
D|------------------------------------------------------------------|
A|---0h2--2-2-2-2-2-0h2--2-2-2-2-2-0h2--2-2-2-2-2-0h2--2-2-2-2/\----|
E|------------------------------------------------------------------|

G|-----------------------------------------------------|
D|---4--2-----2--4--2-----2--4--2-----2--4--2-----2----|
A|---------4-----------4-----------4-----------4-------|
E|-----------------------------------------------------|

G|------------------------------------------------------------------|
D|------------------------------------------------------------------|
A|---0h2--2-2-2-2-2-0h2--2-2-2-2-2-0h2--2-2-2-2-2-0h2--2-2-2-2-2----|
E|------------------------------------------------------------------|            
Submit corrections


        Swords Of A Thousand Men  lessons Hard to play? Try these video lessons and learn fast Swords Of A Thousand Men  lessons
        
↑ Back to top | Tablatures and chords for acoustic guitar and electric guitar, ukulele, drums are parodies/interpretations of the original songs. You may use it for private study, scholarship, research or language learning purposes only