» » »

Tenacious D - Its A Long Way To The Top Tabs

Artists:  A B C D E F G H I J K L M N O P Q R S T U V W X Y Z # 

Its A Long Way To The Top Tabs

(ver. 1) Click to play this song!
Tenacious D
 Rating:
4/5 (4 votes)
                This is the solo for the song played at the end of the School of Rock movie
The vetse is just an "A" chord

bend and hold for the first, second and third bending parts. 

b - bend 
v - vibrate 


Key = A


  E |------------------------------------------------------------------|
  B |------------------------------------------------------5-5-5-------|
  G |--7b-7-7-7--5-7b-7-7-7-5---------5-----5-----5-----5--5-5-5-------|
  D |---------------------------5-5h7---5h7---5h7---5h7-----------7v~~~|
  A |------------------------------------------------------------------|
  E |------------------------------------------------------------------|

  E |----------5-5-5b-5-5-0--------------------------------------------|
  B |----5--8--------------------------5--8--5---------5---5-----------|
  G |--7--------------------5-5---5--7----------7--5---5---5-----------|
  D |---------------------------7------------------------------7-------|
  A |------------------------------------------------------------------|
  E |------------------------------------------------------------------|
            
Submit corrections

↑ Back to top | Tablatures and chords for acoustic guitar and electric guitar, ukulele, drums are parodies/interpretations of the original songs. You may use it for private study, scholarship, research or language learning purposes only