» » »

Tenacious D - Dude I Totally Miss You Tabs

Artists:  A B C D E F G H I J K L M N O P Q R S T U V W X Y Z # 

Dude I Totally Miss You Tabs

(ver. 1) Click to play this song!
Tenacious D
 Rating:
4.3/5 (27 votes)

 Dude I Totally Miss You  lessons Tabs too difficult? Try these video lessons and learn fast
 
                [Solo 1]

     [1]
e|------7-------14h15p14p12-14----12----12------------------------------------------------------------------|
B|----x------------------------------15---------10/-12----12----12----10----10----10-----7----7--7/8--------|
G|--9-------------------------------------------11/-12----12----12----11----11----11-----8----8--8/9--------|
D|-----------------------------------------------------14----14----14----12----12----12---------------------|
A|----------------------------------------------------------------------------------------------------------|
E|----------------------------------------------------------------------------------------------------------|

            [2]
e|---------------------------------(0)-------0--------------------------------------------------------------|
B|---------10b12-------------------13-12-10-12------------7--7b8r7--------10-12h13p12-----------------------|
G|----9h12-------12-9-----12p11p9--------------------9----9--------9-8-11---(11)----------------------------|
D|----------------------------------------------------------------------------------------------------------|
A|----------------------------------------------------------------------------------------------------------|
E|----------------------------------------------------------------------------------------------------------|


[Solo 2]

                               [3]     [4]     [4]             [3]                         [5] H  H
e|----------------------------------------------------------------------------------------------------------|
B|----------------12-10--------/10-10-10h12-------------------------------------------------8-10-10-8-10b12-|
G|--/12---9-11h12-------11\-----------------11-11h12p11-9\-----/7---7---7b9---------------------------------|
D|----------------------------------------------------------------9---9-------8p7----7----7b9---------------|
A|--------------------------------------------------------------------------------10---10-------------------|
E|----------------------------------------------------------------------------------------------------------|

    [8]                      [6]               [4]                            [7]
e|-----------------------------------12----------------------------------------------------------------------|
B|---------------------------15----------------------------12---------------------------------------------17-|
G|-------12-14-14b16----14pb----14pb----14pb---12h14p12----12---12h14-12-------------------------14-16/19----|
D|--/14-------------------------------------------------14------------------------------12-14/17-------------|
A|-----------------------------------------------------------------------------10-12/14----------------------|
E|-----------------------------------------------------------------------------------------------------------|

                                [3]
e|----------------------------------------------------------------------------------------------------------|
B|----------------------------------------------------------------------------------------------------------|
G|--14p12---------------------------------------------------------------------------------------------------|
D|--------14-13p12------------------------------------------------------------------------------------------|
A|-----------------14-12\10-12-12/14------------------------------------------------------------------------|
E|----------------------------------------------------------------------------------------------------------|            
Submit corrections


        Dude I Totally Miss You  lessons Hard to play? Try these video lessons and learn fast Dude I Totally Miss You  lessons
        
↑ Back to top | Tablatures and chords for acoustic guitar and electric guitar, ukulele, drums are parodies/interpretations of the original songs. You may use it for private study, scholarship, research or language learning purposes only