Home » T » Temptations »

Temptations - Under My Skin Tabs

Artists:  A B C D E F G H I J K L M N O P Q R S T U V W X Y Z # 

Under My Skin Tabs

(ver. 1) Click to play this song!
Temptations
Intro/Chorus:

Guitar 1
e-----------------------------|   
B-----------------------------|      
G--7---3---5------5------5-5--|      
D--7---3---5---x--5--x-x-5-5--|      
A--5---1---3---x--3--x-x-3-3--|    
D-----------------------------| X3  

Guitar 2
e----------------------------------------------------------------|
B----------15---------11-----------13---------13---------13------|
G------14---------10-----------12---------12----------12---------|
D--12----------8-----------10---------10----------10---------10--|
A----------------------------------------------------------------|
D----------------------------------------------------------------|

Guitar 1
e----------------------|
B----------------------|
G----------------------|
D--3--3-3---3-3-3-3/5--|
A--3--3-3---3-3-3-3/5--|
D--1--1-1---1-1-1-1/3--|


Verse:
e------------------------------------------------------------------------------------|
B------------------------------------------------------------------------------------|
G------------------------------------------------------------------------------------|
D--0--0--0--0------------------------------------------------------------------------|
A--0--0--0--0--7--0--0--8--0--0--0--0--0--0--3-2-0--0--0--7--0--0--8--0--0--0--8/10--|
D--0--0--0--0--7--0--0--8--0--0--0--0--0--0--3-2-0--0--0--7--0--0--8--0--0--0--8/10--| X2
        | PM |   | PM |   |      PM        |       | PM |   | PM |   |   PM   |

Pre Chorus:
e---------------------------------------------------------------------|
B---------------------------------------------------------------------|
G------------------2-2-2-2-2-2-2-2--3-3-3-3-3-3-3-3--5-5-5-5-5-5-5-5--|
D------------------2-2-2-2-2-2-2-2--3-3-3-3-3-3-3-3--5-5-5-5-5-5-5-5--|
A-5-5-5-5-5-5-5-5--0-0-0-0-0-0-0-0--1-1-1-1-1-1-1-1--3-3-3-3-3-3-3-3--|
D-5-5-5-5-5-5-5-5-----------------------------------------------------|


Chorus

Verse

Pre Chorus

Bridge:
e-----------------------------------|     |------------------------|
B-----------------------------------|     |------------------------|
G--2-2-2-2-2-2-2-2--3-3-3-3-3-3-3-3-|     |-5-5-5-5-5-5-5-5-7=-----|
D--2-2-2-2-2-2-2-2--3-3-3-3-3-3-3-3-|     |-5-5-5-5-5-5-5-5-7=-----|
A--0-0-0-0-0-0-0-0--1-1-1-1-1-1-1-1-|     |-3-3-3-3-3-3-3-3-5=-----|
D-----------------------------------| X3  |------------------------|


Solo

e--------------------------------------------------20-22b24--22b24r22--|
B--------------------20b22--20b22r20b22r20b22v-------------------------|
G---7b9====9PH--r------------------------------------------------------|
D----------------------------------------------------------------------|
A----------------------------------------------------------------------|
D----------------------------------------------------------------------|
               /\
  |slowly release to add the effect|


e--20h22p20-18h20p18-17h18p17-----17---------|
B------------------------------20-----20b22--|
G--------------------------------------------|
D--------------------------------------------|
A--------------------------------------------|
D--------------------------------------------|

e--20-18-17-------------------------------------------------------|
B-----------20-18-17-20-18-17-------------------------------------|
G-----------------------------19-17-15-19-17-15-------------------|
D-----------------------------------------------20-19-17-20-19-17-|
A-----------------------------------------------------------------|
D-----------------------------------------------------------------|

e---------------------------------------|
B---------------------------------------|
G---------------------------------------|
D---------------------------------------|
A-20-19-17-20-19-17---------------------|
D-------------------22-20-19-20-22/24v--|

Chorus till the end

            
Submit corrections

↑ Back to top | Tablatures and chords for acoustic guitar and electric guitar, ukulele, drums are parodies/interpretations of the original songs. You may use it for private study, scholarship, research or language learning purposes only