Home » T » Temptations »

Temptations - My Girl Ukulele

Artists:  A B C D E F G H I J K L M N O P Q R S T U V W X Y Z # 

My Girl Ukulele

(ver. 1) Click to play this song!
Temptations
[Intro] / [Interlude]
     C
     1 + 2 + 3 + 4 +  1 + 2 + 3 + 4 +  1 + 2 + 3 + 4 +  1 + 2 + 3 + 4 +
A --|----------------|----------------|----------------|----------------|
E --|----------------|----------------|----------------|----------------| (bass pattern)
C --|0-0-----0-0-----|0-0-----0-0-----|0-0-----0-0-----|0-0-----0-0-----|
g 0-|------0-------0-|------0-------0-|------0-------0-|------0-------0-|

A --|----------------|----------------|------------0-3-|------------0-3-|
E --|----------------|----------------|----------------|----------------| (guitar riff)
C --|----------------|----------------|0-----2-4-------|0-----2-4-------|
g --|----------------|----------------|----------0-----|----------0-----|

[Verse]
   C                F                C                C
   1 + 2 + 3 + 4 +  1 + 2 + 3 + 4 +  1 + 2 + 3 + 4 +  1 + 2 + 3 + 4 +   
A |------------0-3-|----------3-5-8-|------------0-3-|----------3-5-8-|
E |----------------|------3-5-------|----------------|------3-5-------| (guitar riff)
C |0-----2-4-------|5---------------|0-----2-4-------|5---------------|
g |----------0-----|----------------|----------0-----|----------------|

---------------------------------------------------------------------------

CHORDS
      g-C-E-A
Dm    2-2-1-0
Em    0-4-3-2
Em7   0-2-0-2

---------------------------------------------------------------------------

[Intro]
| C | % | % | % |


[Verse]
         C         F             |  C  |  F  |
I've got sunshine ... on a cloudy day
          C             F               C           |  F  |
When it's cold outside ... I've got the month of May


[Chorus]
C Dm    F     G
I guess you'd say
C        Dm      F         G
What can make me feel this way?
C(maj7)
My girl (my girl, my girl)
              Dm    | G          F G |
Talkin' 'bout my girl (my girl)
                     (break)

[Verse]
         C       F                     |  C  |  F  |
I've got so much honey ... the bees envy me
           C             F                        |  C  |  F  |
I've got a sweeter song ... than the birds in the trees


[Chorus]
C Dm    F     G
I guess you'd say
C        Dm      F         G
What can make me feel this way?
C(maj7)
My girl (my girl, my girl)
              Dm    | G          F G |
Talkin' 'bout my girl (my girl)   Ooh-ooh-oooooh
                     (break)

[Interlude]
| C | % | % | % |


[Solo]
| C | F |    [ C ]
      Hey hey hey
| C | F |    [ Dm ]
      Hey hey hey
| Dm | G | Em | A A A     |
                    (break)

[Verse]
        D               G           |  D  |  G  |
I don't need no money, ... fortune or fame
        D                      G              |  D  |  G  |
I've got all the riches, baby ... one man can claim
        D Em7   G     A
We-ell, I guess you'd say
D        Em7     G         A
What can make me feel this way?
D
My girl (my girl, my girl)
              Em7     | A     G  F#m     Em | [ D ]
Talkin' 'bout my girl (my girl   talkin’ bout my girl)


[Outro]
D
  I've got sunshine on a cloudy day
        Em7
With my girl (
     | A  G       F#m      Em  |  [ D ]
I've even got the month of May with my girl
(My girl - Talkin' 'bout my girl my girl)
|  D  | D              Em7           | A G F#m Em |  [ D ]
        Talkin' 'bout, talkin' 'bout my girl (my girl, woah)

| D | % | Em7 | A G F#m Em |
(repeat and fade, vocals ad lib)
            
Submit corrections

↑ Back to top | Tablatures and chords for acoustic guitar and electric guitar, ukulele, drums are parodies/interpretations of the original songs. You may use it for private study, scholarship, research or language learning purposes only