Home » T » Teeth »

Teeth - Prinsesa Bass

Artists:  A B C D E F G H I J K L M N O P Q R S T U V W X Y Z # 

Prinsesa Bass
Version #1
Teeth


Copy URL
Prinsesa bass tab!

(sundan nyo na lang yung kanta kung ilang times nyo gagawin tong mga to!)
(intro & verse)
G|------------------------------------------|
D|--------7----------7----------5-----------|
A|5--5-555--4--4-444---3--3-333----------2/5|
E|--------------------------------3--3-33---|

(chorus)
G|-----------------------------------------------|
D|-----------------------------------------------|
A|----------------------------555555555555555555-|
E|555555555555555555-----------------------------|
   Dalhin ......               iyong palasyo

------------------------------------------------|
------------------------------------------------|
-----------------------------555555555555555555-|
-555555555555555555-----------------------------|
Maglakad...                  hardin...

------------------------------------------------|
------------------------------------------------|
-----------------------------555555555555555555-|
-555555555555555555-----------------------------|
Wala man akong pag-aari      Pangako kong ......

------------------------------------|
------------------------------------|
---------------------------------2/5|
-55555555555555553333333333333333---|
pagsisilbihan.....

/*Hi sa lahat ng mga kakilala ko!! heheh*/
            
Submit corrections

↑ Back to top | Tablatures and chords for acoustic guitar and electric guitar, ukulele, drums are parodies/interpretations of the original songs. You may use it for private study, scholarship, research or language learning purposes only