» » »

Teen Suicide - Untitled-Oct19 Tabs

Artists:  A B C D E F G H I J K L M N O P Q R S T U V W X Y Z # 

Untitled-Oct19 Tabs

(ver. 1) Click to play this song!
Teen Suicide
 Rating:
4.3/5 (24 votes)

 Untitled-Oct19  lessons Tabs too difficult? Try these video lessons and learn fast
 
                [Verse 1]

e|---0--0--0--0--0--0--0--0--0--0--0--0--0--0--0--0-------|
B|--1--1--1--1--1--1--1--1--1--1--1--1--1--1--1--1--------|
G|-2--2--2--2--2--2--2--2---------------------------------|x2
D|-------------------------2--2--2--2--3--3--3--3---------|
A|--------------------------------------------------------|
E|--------------------------------------------------------|    

e|---0--0--0--0--0--0--0--0--0--0--0--0-3--3--3-----------|
B|--1--1--1--1--1--1--1--1--1--1--1--1---0--0----0--------|
G|-0--0--0--0--1--1--1--1--2--2--2--2--0--0---------------|
D|--------------------------------------------------------|
A|--------------------------------------------------------|
E|--------------------------------------------------------|   


[Verse 2]

e|---0--0--0--0--0--0--0--0--0--0--0--0--0--0--0--0-------|
B|--1--1--1--1--1--1--1--1--1--1--1--1--1--1--1--1--------|
G|-2--2--2--2--2--2--2--2---------------------------------|x2
D|-------------------------2--2--2--2--3--3--3--3---------|
A|--------------------------------------------------------|
E|--------------------------------------------------------|    

e|---0--0--0--0--0--0--0--0--0--0--0--0-3--3--3-----------|
B|--1--1--1--1--1--1--1--1--1--1--1--1---0--0----0--------|
G|-0--0--0--0--1--1--1--1--2--2--2--2--0--0---------------|
D|--------------------------------------------------------|
A|--------------------------------------------------------|
E|--------------------------------------------------------|   


[Outro]

e|---0--0--0--0--0--0--0--0--0--0--0--0--0--0--0--0--------------------------|
B|--1--1--1--1--1--1--1--1--1--1--1--1--1--1--1--1---------------------------|
G|----2-----2-----0-----0-----------0----------------------------------------|
D|-------------------------2--2--2-----3-------------------------------------|
A|-1-----1-----1-----1-------------------------------------------------------|
E|----------------------------------------1--1--1----------------------------|

e|---0--0--0--0--0--0--0--0--0--0--0--0--0--0--0--0--------------------------|
B|--1--1--1--1--1--1--1--1--1--1--1--1--1--1--1--1---------------------------|
G|----2-----2-----0-----0-----------0----------------------------------------|
D|-------------------------2--2--2-----3-------------------------------------|
A|-1-----1-----1-----1-------------------------------------------------------|
E|----------------------------------------1--1--1----------------------------|

e|---0--0--0--0--0--0--0--0--0--0--0--0--0--0--0--0--------------------------|
B|--1--1--1--1--1--1--1--1--1--1--1--1--1--1--1--1---------------------------|
G|----2-----2-----0-----0--------0--0----------------------------------------|
D|-------------------------2--2--------3-------------------------------------|
A|-1-----1-----1-----1-------------------------------------------------------|
E|----------------------------------------1--1--1----------------------------|

e|---0--0--0--0--0--0--0--0--0--0--0--0--0--0--0--0--------------------------|
B|--1--1--1--1--1--1--1--1--1--1--1--1--1--1--1--1---------------------------|
G|----2-----2-----0-----0-----0-----0----------------------------------------|
D|-------------------------2-----2-----3-------------------------------------|
A|-1-----1-----1-----1-------------------------------------------------------|
E|----------------------------------------1--1--1----------------------------|

(fade out)            
Submit corrections


        Untitled-Oct19  lessons Hard to play? Try these video lessons and learn fast Untitled-Oct19  lessons
        
↑ Back to top | Tablatures and chords for acoustic guitar and electric guitar, ukulele, drums are parodies/interpretations of the original songs. You may use it for private study, scholarship, research or language learning purposes only