» » »

Teen Suicide - Oh My God Tabs

Artists:  A B C D E F G H I J K L M N O P Q R S T U V W X Y Z # 

Oh My God Tabs

(ver. 1) Click to play this song!
Teen Suicide
 Rating:
4.3/5 (15 votes)

 Oh My God  lessons Tabs too difficult? Try these video lessons and learn fast
 
                [Verse]
  B3               A#7            B7        C#7
e|---------------------------------|
B|4-4-4-4-4-4-4-4--4-4-4-4-4-4-4-4-|
G|4-4-4-4-4-4-4-4--3-3-3-3-3-3-3-3-| x 3
D|---------------------------------|
A|---------------------------------|
E|---------------------------------|

  B7      C#7
e|----------|
B|5-5-5-5/7-|
G|4-4-4-4/6-| x 1
D|----------|
A|----------|
E|----------|


[Chorus]
  B3               A#7            B7        C#7
e|---------------------------------|
B|4-4-4-4-4-4-4-4--4-4-4-4-4-4-4-4-|
G|4-4-4-4-4-4-4-4--3-3-3-3-3-3-3-3-| x 3
D|---------------------------------|
A|---------------------------------|
E|---------------------------------|

  B7      C#7
e|----------|
B|5-5-5-5/7-|
G|4-4-4-4/6-| x 1
D|----------|
A|----------|
E|----------|

2nd Guitar
Main melody that plays
e|-------14-11-|
B|-12-14-------|
G|-------------|
D|-------------|
A|-------------|
E|-------------|
This plays once during the B7-C#7 part
e|----------------------|
B|-12-12-12-12/14-12-11-|
G|----------------------|
D|----------------------|
A|----------------------|
E|----------------------|            
Submit corrections


        Oh My God  lessons Hard to play? Try these video lessons and learn fast Oh My God  lessons
        
↑ Back to top | Tablatures and chords for acoustic guitar and electric guitar, ukulele, drums are parodies/interpretations of the original songs. You may use it for private study, scholarship, research or language learning purposes only