» » »

Teen Suicide - Lonely Boy Goes To A Rave Tabs

Artists:  A B C D E F G H I J K L M N O P Q R S T U V W X Y Z # 

Lonely Boy Goes To A Rave Tabs

(ver. 1) Click to play this song!
Teen Suicide
 Rating:
4.3/5 (6 votes)

 Lonely Boy Goes To A Rave  lessons Tabs too difficult? Try these video lessons and learn fast
 
                [CHORUS]

Lead guitar/Vocal melody:
e|-------------------------------------------------------------------------------|
B|-------------------------------------------------------------------------------|
G|14b15r14-10--9-----------------------------------------------------------------|
D|-------------------------------------------------------------------------------|
A|-------------------------------------------------------------------------------|
E|-------------------------------------------------------------------------------|

[Chords:]

Bb  F  A  x4


[VERSE]

e|---------------------------------------------------------------------------------------|
B|----------------------------------10---------------------------------------------------|
G|-------------5/7-5-------------------9--------------5/7-5-----------------7-10-8-7-----|
D|8--8-8--8-8--------8-7--7-7--7-7-------8--8-8--8-8--------8-7--7-7--7-7----------------|
A|8--8-8--8-8----------7--7-7--7-7-------8--8-8--8-8----------7--7-7--7-7----------------|
E|6--6-6--6-6----------5--5-5--5-5-------6--6-6--6-6----------5--5-5--5-5----------------|

e|---------------------------------------------------------------------------------------|
B|----------------------------------10---------------------------------------------------|
G|-------------5/7-5-------------------9--------------5/7-5------------------------------|
D|8--8-8--8-8--------8-7--7-7--7-7-------8--8-8--8-8--------8-7--7-7--7-7--77-10-10------|
A|8--8-8--8-8----------7--7-7--7-7-------8--8-8--8-8----------7--7-7--7-7--77-10-10------|
E|6--6-6--6-6----------5--5-5--5-5-------6--6-6--6-6----------5--5-5--5-5--55-8--8-------|

[CHORUS]

Lead guitar/Vocal melody:
e|-------------------------------------------------------------------------------|
B|-------------------------------------------------------------------------------|
G|14b15r14-10--9-----------------------------------------------------------------|
D|-------------------------------------------------------------------------------| x2
A|-------------------------------------------------------------------------------|
E|-------------------------------------------------------------------------------|


[BRIDGE]

Lead Guitar:
e|----------------------------------------------------------------13-10-13-10-13-10-13-10----|
B|--------------------13-10-13-10-13-10-13-10-10-8-10-8-10-8-10-8----------------------------|
G|10-9-10-9-10-9-10-9------------------------------------------------------------------------|
D|-------------------------------------------------------------------------------------------|
A|-------------------------------------------------------------------------------------------|
E|-------------------------------------------------------------------------------------------|


Chords:

F  D  A  Bb   x4

End on  F            
Submit corrections


        Lonely Boy Goes To A Rave  lessons Hard to play? Try these video lessons and learn fast Lonely Boy Goes To A Rave  lessons
        
↑ Back to top | Tablatures and chords for acoustic guitar and electric guitar, ukulele, drums are parodies/interpretations of the original songs. You may use it for private study, scholarship, research or language learning purposes only