» » »

Teen Suicide - I Wanna Be A Witch Tabs

Artists:  A B C D E F G H I J K L M N O P Q R S T U V W X Y Z # 

I Wanna Be A Witch Tabs

(ver. 1) Click to play this song!
Teen Suicide
 Rating:
4.3/5 (21 vote)

 I Wanna Be A Witch  lessons Tabs too difficult? Try these video lessons and learn fast
 
                e|------------------|---------------|
B|-4---4--4--4-4-4--|------6--------|
G|-5---5--5--5-5-5--|-5--5-5--5-5-5-|
D|-5---5--5--5-5-5--|-3--3-3--3-3-3-|
A|-3---3--3--3-3-3--|-0--0-0--0-0-0-|
E|------------------|---------------|

e|-----------1-1-|---------------|
B|-3--3-3--3-3-3-|---------------|
G|-3--3-3--3-3-3-|-3--3-3--3-3-3-|
D|-0--0-0--0-----|-0--0-0--0-0-0-|
A|-1--1-1--1-----|-1--1-1--1-1-1-|
E|---------------|---------------|

e|---------------|-1--1-1--1-1-1-|
B|------3--3-3-3-|-3--3-3--3-3-3-|
G|-3--3-3--3-3-3-|-2--2-2--2-2-2-|
D|-0--0-0--0-0-0-|-0--0-0--0-0-0-|
A|-1--1-1--1-1-1-|-0--0-0--0-3-3-|
E|-3--3-3--3-3-3-|---------------|

e|--------------|-----------------|
B|-3--3-3--3-3--|-----------------|
G|-3--3-3--3-3--|-5-5-5-5-5-3-3-3-|
D|-0--0-0--0-0--|-0-0-0-0-0-0-0-0-|
A|-1--1-1--1-1--|-3-3-3-3-3-1-1-1-|
E|--------------|-----------------|            
Submit corrections


        I Wanna Be A Witch  lessons Hard to play? Try these video lessons and learn fast I Wanna Be A Witch  lessons
        
↑ Back to top | Tablatures and chords for acoustic guitar and electric guitar, ukulele, drums are parodies/interpretations of the original songs. You may use it for private study, scholarship, research or language learning purposes only