» » »

Teen Suicide - If I Cleaned Everything Tabs

Artists:  A B C D E F G H I J K L M N O P Q R S T U V W X Y Z # 

If I Cleaned Everything Tabs

(ver. 1) Click to play this song!
Teen Suicide
 Rating:
4.3/5 (23 votes)

 If I Cleaned Everything lessons Tabs too difficult? Try these video lessons and learn fast
 
                Chorus] 
  One more week
  And things are at an end
  I am not myself
  I haven't been in months
e|----------------------------|
B|----------------------------|
G|-------4-------0------------|
D|---5-------4----------------| x 4
A|-------------------3--------|
E|----------------------------|

[Verse 1]
e|-------------------------------------|
B|-------------------------------------|
G|-------------------------------------|
D|-----------0-0-0-0-0-0-0-0-0-0-0-0---|
A|---2-2-2-2-3-3-3-3-5-5-5-5-3-3-5-5---|
E|-------------------------------------|

e|----------------------------------------|
B|----------------------------------------|
G|----------------------------------------|
D|---0-0-0-0-0-0-0-0-0-0-0-0-0-0-0----0---|
A|---2-2-2-2-3-3-3-3-5-5-5-5-6-6-6----3---|
E|----------------------------------------|

[Chorus]
  I am not alone
  I know it won't be long
  The sky is turning black
  I can't keep my food down
e|----------------------------|
B|----------------------------|
G|-------4-------0------------|
D|---5-------4----------------| x 4
A|-------------------3--------|
E|----------------------------|


[Verse 2]
e|----------------------------------------|
B|----------------------------------------|
G|----------------------------------------|
D|---0-0-0-0-0-0-0-0-0-0-0-0-0-0-0-0------| x 3
A|---2-2-2-2-3-3-3-3-5-5-5-5-5-5-5-5------|
E|-------------------3-3-3-3-2-2-2-2------|

e|----------------------------------------|
B|----------------------------------------|
G|----------------------------------------|
D|---0-0-0-0-0-0-0-0-0-0-0-0-0-0-0-0------|
A|---2-2-2-2-3-3-3-3-5-5-5-5-5-5-5-5------|
E|-------------------3-3-3-3-2-2-2-3------|


[Bridge]
        It will be     okay
e|-----------------------------------|
B|---0---------------0---------------|
G|---0------0--------0---------------|
D|---2------4--------0------0--------|
A|---3------5--------2------0--------|
E|-------------------3------2--------|

        It will be okay   Ooooh
e|---------------------------------------|
B|---0---------------0-------------0-----|
G|---0------0--------0------0------0-----|
D|---2------4--------0------0------0-----|
A|---3------5--------2------2------2-----|
E|-------------------3-------------3-----|


[Verse 3] 
    When I come back home         Every   thing   stops
e|----------------------------|----------------------------|
B|---3---3---0--------0-------|----------------------------|
G|---------------2----0-------|---0-------2---0-------4----|
D|--------------------2-------|-------4-----------0---5----|
A|--------------------3-------|-----------------------5----|
E|----------------------------|----------------------------|
     
    Getting  out of  bed         Is the hardest  part
e|---------------------------|-----------------------------|
B|---3---3---0-------0-------|-----------------------------|
G|---------------2-------4---|---0-------------------------|
D|-----------------------5---|-------4---4---0----0--------|
A|-----------------------5---|--------------------2--------|
E|---------------------------|-----------------------------|             
Submit corrections


        If I Cleaned Everything lessons Hard to play? Try these video lessons and learn fast If I Cleaned Everything lessons
        
↑ Back to top | Tablatures and chords for acoustic guitar and electric guitar, ukulele, drums are parodies/interpretations of the original songs. You may use it for private study, scholarship, research or language learning purposes only