» » »

Teen Suicide - Grim Reaper Tabs

Artists:  A B C D E F G H I J K L M N O P Q R S T U V W X Y Z # 

Grim Reaper Tabs

(ver. 1) Click to play this song!
Teen Suicide
 Rating:
4.3/5 (12 votes)

 Grim Reaper  lessons Tabs too difficult? Try these video lessons and learn fast
 
                "I'm dropping out of school, i found a new job...

e|---------------------------------------------------------------------------|
B|------------12---------------------------------12--------------------------|
G|---9--9--8------13--9----9--8------8--9--9--8------13--9-------------------|
D|-------------------------------11------------------------------------------|
A|---------------------------------------------------------------------------|
E|---------------------------------------------------------------------------|

doing what i wanna do and you can't stop me now, mom and dad..

e|---------------------------------------------------------------------------|
B|-----------------------------------12------12------------------------------|
G|--9--9--8-----------------8--9--8------13------13--9-----------------------|
D|-----------11--9--11--11---------------------------------------------------|
A|---------------------------------------------------------------------------|
E|---------------------------------------------------------------------------|

i wanna be the grim reaper, i wanna be the grim reaper..

e|---------------------------------------------------------------------------|
B|-----------------12--------------------------------------------------------|
G|-9-9-9-9-9-11-13----9-9-9-9-9-8-9------------------------------------------|
D|----------------------------------11---------------------------------------|
A|---------------------------------------------------------------------------|
E|---------------------------------------------------------------------------|

i wanna be the grim reaper, i wanna be the grim reaper..

e|---------------------------------------------------------------------------|
B|---------------------------------------------------------------------------|
G|-9-9-9-9-9-11-13-12--9-9-9-9-9-8-9-8---------------------------------------|
D|-------------------------------------11------------------------------------|
A|---------------------------------------------------------------------------|
E|---------------------------------------------------------------------------|

nothing you say could change my mind"

e|---------------------------------------------------------------------------|
B|-------------12----12------------------------------------------------------|
G|-----8-9-8-8----13----13-9-------------------------------------------------|
D|--11-----------------------------------------------------------------------|
A|---------------------------------------------------------------------------|
E|---------------------------------------------------------------------------|            
Submit corrections


        Grim Reaper  lessons Hard to play? Try these video lessons and learn fast Grim Reaper  lessons
        
↑ Back to top | Tablatures and chords for acoustic guitar and electric guitar, ukulele, drums are parodies/interpretations of the original songs. You may use it for private study, scholarship, research or language learning purposes only