» » »

Teen Suicide - Give Me Back To The Sky Tabs

Artists:  A B C D E F G H I J K L M N O P Q R S T U V W X Y Z # 

Give Me Back To The Sky Tabs

(ver. 1) Click to play this song!
Teen Suicide
 Rating:
4.4/5 (14 votes)

 Give Me Back To The Sky lessons Tabs too difficult? Try these video lessons and learn fast
 
                [Main Riff]
played in standard with a capo on the second fret
relative to 2nd fret capo, also this isnt the correct timing so you probably want listen to the song for it
e|------------------------------------------------|
B|-3-3-3-3-3-3-3-3-8-8-8-8-8-8-8-8-6-6-6-6-6-6-6-6|
G|-0-0-0-0-0-0-0-0-0-0-0-0-0-0-0-0-0-0-0-0-0-0-0-0|
D|-2-2-2-2-2-2-2-2-x-x-x-x-x-x-x-x-x-x-x-x-x-x-x-x|
A|-3-3-3-3-3-3-3-3-8-8-8-8-8-8-8-8-8-8-8-8-8-8-8-8|
E|------------------------------------------------|

play this part twice then the second part after the last chord of the first part (ie: I I II repeat)
e|------------------------------------------------|
B|-5-5-5-5-3-3-3-3-8-8-8-8-8-8-8-8-6-6-6-6-6-6-6-6|
G|-0-0-0-0-0-0-0-0-0-0-0-0-0-0-0-0-0-0-0-0-0-0-0-0|
D|-4-4-4-4-4-4-4-4-x-x-x-x-x-x-x-x-x-x-x-x-x-x-x-x|
A|-5-5-5-5-5-5-5-5-8-8-8-8-8-8-8-8-8-8-8-8-8-8-8-8|
E|------------------------------------------------|
end on the 5th fret chord thing
            
Submit corrections


        Give Me Back To The Sky lessons Hard to play? Try these video lessons and learn fast Give Me Back To The Sky lessons
        
↑ Back to top | Tablatures and chords for acoustic guitar and electric guitar, ukulele, drums are parodies/interpretations of the original songs. You may use it for private study, scholarship, research or language learning purposes only