» » »

Teen Suicide - Falling Out Of Love With Me Tabs

Artists:  A B C D E F G H I J K L M N O P Q R S T U V W X Y Z # 

Falling Out Of Love With Me Tabs

(ver. 1) Click to play this song!
Teen Suicide
 Rating:
4.3/5 (23 votes)

 Falling Out Of Love With Me  lessons Tabs too difficult? Try these video lessons and learn fast
 
                e|---x--------------------------0-----------------------0--------------------|
B|---0--------------------------0-----------------------0--------------------|
G|---0--------------------------2-----------------------0--------------------|
D|---0--------------------------2-----------------------2--------------------|
A|---2--------------------------0-----------------------3--------------------|
E|---3--------------------------0-----------------------x--------------------|

Melody:

e|-----7---8-7-----7---10-7-10-7---------------------------------------------|
B|---8---8-----8-8---8-------------------------------------------------------|
G|---------------------------------------------------------------------------|
D|---------------------------------------------------------------------------|
A|---------------------------------------------------------------------------|
E|---------------------------------------------------------------------------|



[Chorus]

e|---0-------------0--------------0------------------------------------------|
B|---0-------------0--------------0------------------------------------------|
G|---2-------------0--------------0------------------------------------------|
D|---2-------------4--------------2------------------------------------------|
A|---0-------------2--------------3------------------------------------------|
E|---------------------------------------------------------------------------|

e|---0-------------0--------------0------------------------------------------|
B|---0-------------0--------------0------------------------------------------|
G|---2-------------0--------------2------------------------------------------|
D|---2-------------4--------------3------------------------------------------|
A|---0-------------2--------------3------------------------------------------|
E|--------------------------------1------------------------------------------|

Chorus melody

e|---------------------------------------------------------------------------|
B|---8-7---------------------------------------------------------------------|
G|-------7-------------------------------------------------------------------|
D|----------10-9-7-----------------------------------------------------------|
A|-----------------7-10------------------------------------------------------|
E|---------------------------------------------------------------------------|
            
Submit corrections


        Falling Out Of Love With Me  lessons Hard to play? Try these video lessons and learn fast Falling Out Of Love With Me  lessons
        
↑ Back to top | Tablatures and chords for acoustic guitar and electric guitar, ukulele, drums are parodies/interpretations of the original songs. You may use it for private study, scholarship, research or language learning purposes only