» » »

Teen Suicide - Crying Tabs

Artists:  A B C D E F G H I J K L M N O P Q R S T U V W X Y Z # 

Crying Tabs

(ver. 1) Click to play this song!
Teen Suicide
 Rating:
4.3/5 (25 votes)

 Crying  lessons Tabs too difficult? Try these video lessons and learn fast
 
                [Intro]

(Guitar 1)

     C   
e|---------------0-----------------------0-------------|
B|-------------------1-----------------------1---------|
G|-----------0-----------0-----------0-----------0-----|
D|-------2-----------------------2---------------------|
A|---3-----------------------3-------------------------|
E|-----------------------------------------------------|

     Am
e|---------------0-----------------------0------------|
B|-------------------1-----------------------1--------|
G|-----------2-----------0-----------2----------0-----|
D|-------2-----------------------2--------------------|
A|---0-----------------------0------------------------|
E|----------------------------------------------------|

     F
e|---------------1-----------------------0------------|
B|-------------------1-----------------------1--------|
G|-----------2-----------2-----------2-----------0----|
D|-------3-----------------------3--------------------|
A|---3-----------------------3------------------------|
E|----------------------------------------------------|

     G
e|---------------3-----------------------3------------|
B|-------------------0-----------------------0--------|
G|-----------------------0-----------------------0----|
D|-----------0-----------------------0----------------|
A|-------2-----------------------2--------------------|
E|---3-----------------------3------------------------|

(Guitar 2)

e|--------------------------------------------------------------------|
B|--------------------------------------------------------------------|
G|--------------------------------------------------------------------|
D|-----------0---2-----0-----------2---0---2--------------------------|
A|---2---3-------------------3-----------------3-----2-----0----------|
E|--------------------------------------------------------------------|

e|--------------------------------------------------------------------|
B|--------------------------------------------------------------------|
G|--------------------------------------------------------------------|
D|-----------------------------------------0---2---0h2---(0)----------|
A|---0---2---3---3/5-----5/7-----3-----3----------------------(3)-----|
E|--------------------------------------------------------------------|


[Chorus]

e|----1----1----1----1--------1----1----1----1--------|
B|----1----1----1----1--------1----1----1----1--------|
G|----2----2----2----2--------2----2----2----2--------|
D|----3----3----3----3--------3----3----3----3--------|
A|----3----3----3----3--------3----3----3----3--------|
E|----1----1----1----1--------1----1----1----1--------|

e|----3----3----3----3--------3----3----3----3--------|
B|----0----0----0----0--------0----0----0----0--------|
G|----0----0----0----0--------0----0----0----0--------| 
D|----0----0----0----0--------0----0----0----0--------|
A|----2----2----2----2--------2----2----2----2--------|
E|----3----3----3----3--------3----3----3----3--------|

(Guitar 1)

      C                       Am
e|---------------0-----------------------0-------------|
B|-------------------1-----------------------1---------|
G|-----------0-----------0-----------2-----------0-----|
D|-------2-----------------------2---------------------|
A|---3-----------------------0-------------------------|
E|-----------------------------------------------------|

     F                       G 
e|---------------1-----------------------3-------------|
B|-------------------1-----------------------0---------|
G|-----------2-----------2-----------------------0-----|
D|-------3---------------------------0-----------------|
A|---3---------------------------2---------------------|
E|---------------------------3-------------------------|

(Guitar 1 and 2)

e|----1----1----1----1--------1----1----1----1--------|
B|----1----1----1----1--------1----1----1----1--------|
G|----2----2----2----2--------2----2----2----2--------|
D|----3----3----3----3--------3----3----3----3--------|
A|----3----3----3----3--------3----3----3----3--------|
E|----1----1----1----1--------1----1----1----1--------|

e|----3----3----3----3--------3----3----3----3--------|
B|----3----3----3----3--------3----3----3----4--------|
G|----4----4----4----4--------4----4----4----4--------| 
D|----5----5----5----5--------5----5----5----5--------|
A|----5----5----5----5--------5----5----5----5--------|
E|----3----3----3----3--------3----3----3----3--------|

(Guitar 1)

     C                        Am 
e|---------------0-----------------------0-------------|
B|-------------------1-----------------------1---------|
G|-----------0-----------0-----------2-----------0-----|
D|-------2-----------------------2---------------------|
A|---3-----------------------0-------------------------|
E|-----------------------------------------------------|

     F                       G
e|---------------1-----------------------3-------------|
B|-------------------1-----------------------0---------|
G|-----------2-----------2-----------------------0-----|
D|-------3---------------------------0-----------------|
A|---3---------------------------2---------------------|
E|---------------------------3-------------------------|

(Guitar 2)

e|----1----1----1----1----1----1--------3----3----3----3----3----3----|
B|----1----1----1----1----1----1--------3----3----3----3----3----3----|
G|----2----2----2----2----2----2--------4----4----4----4----4----4----|
D|----3----3----3----3----3----3--------5----5----5----5----5----5----|
A|----3----3----3----3----3----3--------5----5----5----5----5----5----|
E|----1----1----1----1----1----1--------3----3----3----3----3----3----|            
Submit corrections


        Crying  lessons Hard to play? Try these video lessons and learn fast Crying  lessons
        
↑ Back to top | Tablatures and chords for acoustic guitar and electric guitar, ukulele, drums are parodies/interpretations of the original songs. You may use it for private study, scholarship, research or language learning purposes only