» » »

Ted Nugent - Love Grenade Tabs

Artists:  A B C D E F G H I J K L M N O P Q R S T U V W X Y Z # 

Love Grenade Tabs

(ver. 2) Click to play this song!
Ted Nugent
 Rating:
4/5 (4 votes)

 Love Grenade lessons Tabs too difficult? Try these video lessons and learn fast
 
                E|-------------------------------------------------------------------------|
B|-------------------------------------------------------------------------|
G|--0--5/3--0--3/0--XXX--5/3--0--12~---0--5/3--0--3/0--XXX--5/3--0--10~----|
D|--0--5/3--0--3/0--XXX--5/3--0--12~---0--5/3--0--3/0--XXX--5/3--0--10~----|
A|-------------------------------------------------------------------------|
E|-------------------------------------------------------------------------|

E|-------------------------------------------------------------------------|
B|-------------------------------------------------------------------------|
G|--0--5/3--0--3/0--XXX--5/3--0--12~---0--5/3--0--3/0--XXX-----------------|
D|--0--5/3--0--3/0--XXX--5/3--0--12~---0--5/3--0--3/0--XXX--3--5-----------|
A|----------------------------------------------------------3--5-----------|
E|----------------------------------------------------------1--3-----------|

E|-------------------------------------------------------------------------|
B|-------------------------------------------------------------------------|
G|--0--5/3--0--3/0--XXX--5/3--0--12~---0--5/3--0--3/0--XXX--5/3--0--10~----|
D|--0--5/3--0--3/0--XXX--5/3--0--12~---0--5/3--0--3/0--XXX--5/3--0--10~----|
A|-------------------------------------------------------------------------|
E|-------------------------------------------------------------------------|

E|-------------------------------------------------------------------------|
B|-------------------------------------------------------------------------|
G|--0--5/3--0--3/0--XXX--5/3--0--12~---0--5/3--0--3/0----------------------|
D|--0--5/3--0--3/0--XXX--5/3--0--12~---0--5/3--0--3/0---3------------------|
A|------------------------------------------------------3------------------|
E|------------------------------------------------------1------------------|
            
Submit corrections


        Love Grenade lessons Hard to play? Try these video lessons and learn fast Love Grenade lessons
        
↑ Back to top | Tablatures and chords for acoustic guitar and electric guitar, ukulele, drums are parodies/interpretations of the original songs. You may use it for private study, scholarship, research or language learning purposes only