» » »

Ted Leo - Timorous Me Tabs

Artists:  A B C D E F G H I J K L M N O P Q R S T U V W X Y Z # 

Timorous Me Tabs

(ver. 1) Click to play this song!
Ted Leo
 Rating:
4/5 (14 votes)

 Timorous Me lessons Tabs too difficult? Try these video lessons and learn fast
 
                -----------------------------------------------------------------------------
-----------------------------------------------------------------------------

This is my first tab (and a hellish one at that). Mostly complete except for some second 
parts here and there and some variations he adds in.

Tuning: Standard


Part A
e------------------------------------------------------2-2-2-----|
B------------------------------------------------------2-2-2-----|
G------------------------------------------------------2-2-2-----|
D--------2--------------(4)b5r4-2-----------2----------4-4-2-----|
A--2—2h4---4-4-4--2—2h4----------4-4--2—2h4----4-4-4---4-4-2-----|
E------------------------------------------------------2-2-2-----|

e---------------------------------------------------------------2-2-2-|
B---------------------------------------------------------------2-2-2-|
G---------------------------------------------------------------2-2-2-|
D--6—4h6p4-2----2--------------(4)b5r4-2--------------2---------4-4-4-|
A------------4----4-4-4--2-2h4-----------4-4--2—2h4-----4-4-4---4-4-4-|
E---------------------------------------------------------------2-2-2-|

e--2-2-2----5-5-5----|
B--2-2-2----5-5-5----|
G--2-2-2----6-6-6----|
D--4-4-4----7-7-7----|
A--4-4-4----7-7-7----|
E--2-2-2----5-5-5----|

Part B
e----0-0-0--0-----------4--4--2-2-2--5-5-5--4-4-4--0------------------|
B----0-0-0--0-----------5--5--2-2-2--5-5-5--5-5-5--0------------------|
G----1-1-1--1-----------6--6--2-2-2--6-6-6--6-6-6--1------------------|
D----2-2-2--2-----------6--6--4-4-4--7-7-7--6-6-6--2------------2-----|
A----2-2-2--2---2/3/4---4--4--4-4-4--7-7-7--4-4-4--2---2--2/3/4---4-4-|
E----0-0-0--0-----------4--4--2-2-2--5-5-5--4-4-4--0------------------|

e--2--2-2-2--5-5-5----|
B--2--2-2-2--5-5-5----|
G--2--2-2-2--6-6-6----|
D--4--4-4-4--7-7-7----|
A--4--4-4-4--7-7-7—---|
E--4--2-2-2--5-5-5----|


Part C
e----13-13-13-----------------------------------------------|
B----13-13-13------------9----------9-9-9-------------------|
G----14-14-14-11-11p9----9----------9-9-9-------9-11p9------|
D----15-15-15---------11-9------9---9-9-9-9-9h11-------11p9-|
A----15-15-15--------------9p11--11-------------------------|
E----13-13-13-----------------------------------------------|


e--4--4---4--4--2--2-2-2--5-5-5---------------------------------------|
B--5--5---4--4--2--2-2-2--5-5-5---------------------------------------|
G--6--6---4--4--2--2-2-2--6-6-6---------------------------------------|
D--6--6---4--4--4--4-4-4--7-7-7---------------------------------------|
A--4--4---6--6--4--4-4-4--7-7-7---------------------------------------|
E--4--4---0--0--2--2-2-2--5-5-5---------------------------------------|

Part D
e--2--2---5--S-----|
B--2--2---5--T-----|
G--2--2---6--R-----|
D--4--4---7--U-----|
A--4--4---7--M-----|
E--2--2---5--------|

Part E
e---------------------------------------------------------------|
B--------------------5p4---4------------------------------------|
G------------4h6(x6)-----6---6-4----------------------9---------|
D----4(x10)h6--------------------6(x12)----7h9p7-9/11—-11-9-7---|
A--------------------------------------7h9--------------------9-|
E---------------------------------------------------------------|


Here's how it goes

[A]
[B] x 2
[C]
[B]
[A]
[B] x 2
[C]
[E] x 4
[B] x 2
[D]
[E] x 4
[E + F]* x 4
Then end with the first three chords from [B]


*Played by two guitars simultaneously


Part F

e-----------4-5(x6)-7-5-4-5-4-----------------------------------|
B-------5h7-------------------7-5(x12)-------------5------------|
G—6(x9)--------------------------------4h6-4h6 4h6---6p4-6p4-6--|
D-----------------------------—---------------------------------|
A---------------------------------------------------------------|
E---------------------------------------------------------------|


| /  slide up
| \  slide down
| h  hammer-on
| p  pull-off
| b  bend to
| r  release to
=============================================================================
            
Submit corrections


        Timorous Me lessons Hard to play? Try these video lessons and learn fast Timorous Me lessons
        
↑ Back to top | Tablatures and chords for acoustic guitar and electric guitar, ukulele, drums are parodies/interpretations of the original songs. You may use it for private study, scholarship, research or language learning purposes only