Home » T » Tebey »

Tebey - Wake Me Up Bass

Artists:  A B C D E F G H I J K L M N O P Q R S T U V W X Y Z # 

Wake Me Up Bass

(ver. 1) Click to play this song!
Tebey
Tuning: Standard


INTRO - Bass starts at 0:13

G|---------------------------------------|
D|----------------------7/9----5---------|
A|--0--2---------5------------------5----|
E|----------3----------------------------|

VERSE 1

G|------------------------------------------------------------------------------|
D|------------------------------------------------------------------------------|
A|--2----------5--------2---------5--------2---------5-------2---------5------0-|
E|-------3-------------------3------------------3-----------------3-------------|

G|--------------------------------------------------------------------------------------|
D|------------------------------------------------------------------------------------7-|
A|--2----------5--------2---------5--------2--2--------5--5------2--2--------5--7--9----|
E|-------3-------------------3-------------------3--3------------------3--3-------------|

CHORUS

G|-------------------------------|      G|-------------------------------|     
D|--9--9----------12--12--12-----| X4   D|--9--9----------12------12-----| X3  
A|--------10--10--------------12-|      A|--------10--10------12------12-|     
E|-------------------------------|      E|-------------------------------|     


G|-----------------------------------------------------------------|
D|--9--9----------12------9----5----------7--9----5----------------|
A|--------10--10--------------------5-------------------5--------0-|
E|-----------------------------------------------------------------|

VERSE 2

G|-------------------------------------------------------------------------------------------|
D|-------------------------------------------------------------------------------------------|
A|--2--2---------5--0--5--0--2--2--------5--0--5--0--2--2--------5--0--5--0--2--2--------5---|
E|--------3--3---------------------3--3--------------------3--3--------------------3--3------|


G|---------------12--12---------------------------------------------------------------------|
D|--------7-9-------------12------7--9--9----------12--12--------7-9--9----------12--12--12-|
A|--5-7-9----------------------------------10--10----------5-7-9---------10--10-------------|
E|------------------------------------------------------------------------------------------|


G|-----------------------------|
D|-7--9--9----------12------7--|
A|----------10--10-------------|
E|-----------------------------|

CHORUS

G|-------------------------------|      G|-------------------------------|     
D|--9--9----------12--12--12-----| X4   D|--9--9----------12------12-----| X3  
A|--------10--10--------------12-|      A|--------10--10------12------12-|     
E|-------------------------------|      E|-------------------------------|     


G|----------------------------------------------------------------------|
D|--9--9----------12-----------9----5-----------7--9----5---------------|
A|--------10--10-------------------------5-------------------5--------0-|
E|----------------------------------------------------------------------|


GUITAR SOLO


G|----------------------------------------------------------------------------------------------|
D|----------------------------------------------------------------------------------------------|
A|-2--2-------5--5--5--0--2--2--------5--5--5--0--2--2--------5--5--5--0--2--2-------5--5--5--0-|
E|------3--3--------------------3--3--------------------3--3-------------------3--3-------------|


FINAL CHORUS AND OUTRO


G|---------------------------------------------------------------------------------------------|
D|---------------------------------------------------------------------------------------------|
A|-2--2-------5--0--5--0--2--2--------5--5--5--0--2--2--------5--5--5--0--2--2------5--5--5--0-|
E|------3--3--------------------3--3--------------------3--3-------------------3--3------------|


G|----------------------------------------------------------------------------------------------|
D|----------------------------------------------------------------------------------------------|
A|-2--2-------5--0--5--0--2--2--------5--0--5--0--2--2--------5--5--5--0--2--2-------5--5--5--0-|
E|------3--3-------------------3--3--------------------3--3--------------------3--3-------------|


G|---------------------------------------------------------------------------------------------|
D|---------------------------------------------------------------------------------------------|
A|-2--2---------5--5--5--0--2----------5-------0--2-----------5------0--2--2--------5--5--5--0-|
E|-------3--3--------------------3----------------------3---------------------3--3-------------|


G|----------------------------------------------------------------------------------------------|
D|----------------------------------------------------------------------------------------------|
A|-2--2-------5--5--5--0--2--2-------5--5--5--0--2--2--------5--5--5--0--2--2--------5--5--5--0-|
E|-------3--3-------------------3--3-------------------3--3--------------------3--3-------------|

G|-----------------------------------------------------------------------------------|
D|-----------------------------------------------------------------------------------|
A|--2--2---------5--5--5--0--2--2--------5--5--5--0--2--2--------5--5--5--0--5-------|
E|--------3--3---------------------3--3--------------------3--3----------------------|            
Submit corrections

↑ Back to top | Tablatures and chords for acoustic guitar and electric guitar, ukulele, drums are parodies/interpretations of the original songs. You may use it for private study, scholarship, research or language learning purposes only