» » »

Teaze - Sweet Misery Bass

Artists:  A B C D E F G H I J K L M N O P Q R S T U V W X Y Z # 

Sweet Misery Bass

(ver. 1) Click to play this song!
Teaze
 Rating:
3.1/5 (23 votes)

 Sweet Misery  lessons Tabs too difficult? Try these video lessons and learn fast
 
                [INTRO]
  G        Bm       C   D    G        G        Bm       C   D    G        
G:--------|--------|--------|--------|--------|--------|--------|--------|
D:--------|--------|--------|--------|--------|--------|--------|--------|
A:--------|--------|--------|--------|--------|2-------|3---5---|--------|
E:--------|--------|--------|--------|3-------|--------|--------|3-------|

[VERSE]
      G                 Bm                          C                 D      G
  The very first time I saw your face             I knew you were the classy one
     G                       Bm                       C               D      G
  We danced, and laughed and talked all night     You had to leave, I had to come

  G        Bm       C   D    G        G        Bm       C   D    G        
G:--------|--------|--------|--------|--------|--------|--------|--------|
D:--------|--------|--------|--------|--------|--------|--------|--------|
A:--------|22--22--|33--55--|--------|--------|22--22--|33--55--|--------|
E:33-333--|--2---2-|--3---5-|33-333--|33-333--|--2---2-|--3---5-|33-333--|

[BRIDGE]
      Em              Bm                            Em          Bm
  But as I walked you home that night          Your disposition changed
      Em                 Bm                    C          D  G
  And like a knife right through my heart      Sweet Misery again

  Em       Bm       Em       Bm       Em       Bm       C   D    G
G:--------|--------|--------|--------|--------|--------|--------|--------|
D:--------|--------|--------|--------|--------|--------|--------|--------|
A:--------|2--2-2--|--------|2--2-2--|--------|2--2-2--|3--35--5|--------|
E:0--0-0--|--------|0--0-0--|--------|0--0-0--|--------|--------|3--3-3--|

[CHORUS]
  G                    Bm                     C        D       G
  Why you forgot me, I did not know       You do not recall my name
  G             Bm                             C               D        G
  Must be sweet misery                    I'll have you know I feel the same

  G        Bm       C   D    G        G        Bm       C   D    G        
G:--------|--------|--------|--------|--------|--------|--------|--------|
D:--------|--------|--------|--------|--------|--------|--------|--------|
A:--------|22--22--|33--55--|--------|--------|22--22--|33--55--|--------|
E:33-333--|--2---2-|--3---5-|33-333--|33-333--|--2---2-|--3---5-|33-333--|

[VERSE]
     G              Bm                      C        D           G
  If I believe what I've been told     I'll only be around for a while
      G                          Bm
  You love 'em and leave 'em for less than a song
      C                   D        G
  But they still can't forget that smile

  G        Bm       C   D    G        G        Bm       C   D    G        
G:--------|--------|--------|--------|--------|--------|--------|--------|
D:--------|--------|--------|--------|--------|--------|--------|--------|
A:--------|22--22--|33--55--|--------|--------|22--22--|33--55--|--------|
E:33-333--|--2---2-|--3---5-|33-333--|33-333--|--2---2-|--3---5-|33-333--|

[BRIDGE]
      Em               Bm              Em                 Bm
  And when I'm sitting home alone      I wish it could be me
    Em             Bm                     C           D     G
  I want so bad to be the one          To say exactly how I feel

  Em       Bm       Em       Bm       Em       Bm       C   D    G
G:--------|--------|--------|--------|--------|--------|--------|--------|
D:--------|--------|--------|--------|--------|--------|--------|--------|
A:--------|2--2-2--|--------|2--2-2--|--------|2--2-2--|3--35--5|--------|
E:0--0-0--|--------|0--0-0--|--------|0--0-0--|--------|--------|3--3-3--|

[CHORUS]  (Play Twice)
  G                    Bm                     C        D       G
  Why you forgot me, I did not know       You do not recall my name
  G             Bm                             C               D        G
  Must be sweet misery                    I'll have you know I feel the same

  G        Bm       C   D    G        G        Bm       C   D    G        
G:--------|--------|--------|--------|--------|--------|--------|--------|
D:--------|--------|--------|--------|--------|--------|--------|--------|
A:--------|22--22--|33--55--|--------|--------|22--22--|33--55--|--------|
E:33-333--|--2---2-|--3---5-|33-333--|33-333--|--2---2-|--3---5-|33-333--|

[INSTRUMENTAL]
  G        Bm       C   D    G        G        Bm       C   D    G        
G:--------|--------|--------|--------|--------|--------|--------|--------|
D:--------|--------|--------|--------|--------|--------|--------|--------|
A:--------|22--22--|33--55--|--------|--------|22--22--|33--55--|--------|
E:33-333--|--2---2-|--3---5-|33-333--|33-333--|--2---2-|--3---5-|33-333--|

[BRIDGE]
    Em            Bm                      Em                Bm
  I haven't got a thing to give         Except for what you see
    Em             Bm                          C             D         G
  Remember this if all should fail      You'll always have a friend in me

  Em       Bm       Em       Bm       Em       Bm       C   D    G
G:--------|--------|--------|--------|--------|--------|--------|--------|
D:--------|--------|--------|--------|--------|--------|--------|--------|
A:--------|2--2-2--|--------|2--2-2--|--------|2--2-2--|3--35--5|--------|
E:0--0-0--|--------|0--0-0--|--------|0--0-0--|--------|--------|3--3-3--|

[CHORUS]  (Play Twice)
  G                    Bm                     C        D       G
  Why you forgot me, I did not know       You do not recall my name
  G             Bm                             C               D        G
  Must be sweet misery                    I'll have you know I feel the same

  G        Bm       C   D    G        G        Bm       C   D    G        
G:--------|--------|--------|--------|--------|--------|--------|--------|
D:--------|--------|--------|--------|--------|--------|--------|--------|
A:--------|22--22--|33--55--|--------|--------|22--22--|33--55--|--------|
E:33-333--|--2---2-|--3---5-|33-333--|33-333--|--2---2-|--3---5-|33-333--|

[CODA]
  G             Bm                             C               D        G
  Must be sweet misery                    I'll have you know I feel the same
  G             Bm                             C               D        G
  Must be sweet misery                    I'll have you know I feel the same

  G        Bm       C   D    G        G        Bm       C   D    G        
G:--------|--------|--------|--------|--------|--------|--------|--------|
D:--------|--------|--------|--------|--------|--------|--------|--------|
A:--------|22--22--|33--55--|--------|--------|22--22--|33--55--|--------|
E:33-333--|--2---2-|--3---5-|33-333--|33-333--|--2---2-|--3---5-|33-333--|            
Submit corrections


        Sweet Misery  lessons Hard to play? Try these video lessons and learn fast Sweet Misery  lessons
        
↑ Back to top | Tablatures and chords for acoustic guitar and electric guitar, ukulele, drums are parodies/interpretations of the original songs. You may use it for private study, scholarship, research or language learning purposes only