» » »

Team Pooteng - Im A Sex Offender Tabs

Artists:  A B C D E F G H I J K L M N O P Q R S T U V W X Y Z # 

Im A Sex Offender Tabs

(ver. 1) Click to play this song!
Team Pooteng
 Rating:
2.9/5 (24 votes)

 Im A Sex Offender  lessons Tabs too difficult? Try these video lessons and learn fast
 
                Tuning: Drop D

 VERSE
e|---------------------------------------------------------------------------|
B|---------------------------------------------------------------------------|
G|-55555555-33333333-55555555-33333333-55555555-33333333-55555555-33333333---|
D|-55555555-33333333-55555555-33333333-55555555-33333333-55555555-33333333---|
A|-33333333-11111111-33333333-11111111-33333333-11111111-33333333-11111111---|
E|---------------------------------------------------------------------------|

 CHORUS
e|---------------------------------------------------------------------------|
B|---------------------------------------------------------------------------|
G|-----------------3-3-3-3---------------------------3-3-3-3-----------------|
D|-5-5-5-5-3-3-3-3-3-3-3-3-5-5-5-5--5-5-5-5-3-3-3-3--3-3-3-3-5-5-5-5---------|
A|-5-5-5-5-3-3-3-3-1-1-1-1-5-5-5-5--5-5-5-5-3-3-3-3--1-1-1-1-5-5-5-5---------|
E|-5-5-5-5-3-3-3-3---------5-5-5-5--5-5-5-5-3-3-3-3----------5-5-5-5---------|

 BRIDGE
e|---------------------------------------------------------------------------|
B|---------------------------------------------------------------------------|
G|-3----------------3----------------3----------------3----------------------|
D|-3----------------3----------------3----------------3----------------------|
A|-1----------------1----------------1----------------1----------------------|
E|---------------------------------------------------------------------------|

e|---------------------------------------------------------------------------|
B|---------------------------------------------------------------------------|
G|---------------------------------------------------------------------------|
D|---------------------------------------------------------------------------|
A|-//PICKSLIDE//-------------------------------------------------------------|
E|-//PICKLSIDE//-------------------------------------------------------------|            
Submit corrections


        Im A Sex Offender  lessons Hard to play? Try these video lessons and learn fast Im A Sex Offender  lessons
        
↑ Back to top | Tablatures and chords for acoustic guitar and electric guitar, ukulele, drums are parodies/interpretations of the original songs. You may use it for private study, scholarship, research or language learning purposes only