Home » T » T-Bone Walker »

T-Bone Walker - Evening Tabs

Artists:  A B C D E F G H I J K L M N O P Q R S T U V W X Y Z # 

Evening Tabs

(ver. 1) Click to play this song!
T-Bone Walker
[Intro]

e|------------------------------------------------------|
B|------------------------------------------------------|
G|----7----5--------------------------------------------|  x2 (and repeating throughout after the verses start
D|------7-----7-----6--5---------5----------------------|
A|-5-------------5--------5---8-----5-------------------|
E|------------------------------------------------------|


[Verse]

Dm7      C7   Bb7       A7        A7addG       Dm     C7    
Eeeeeeevenin',    every night you come and you find me      
    Bb7            A7     A7addG     Dm    C7    Bb7   A7  A7addG Bb7    C7         Dm
 Oh, Lord   And you always come and remind me  Oh Yes....
      
              Dm7   C7        Bb7       A7     A7addG      Dm7   C7           Bb7    A7   A7addG
That my gal is gone, my baby's gone, my baby's gone     O Lord       my baby's gone

Dm7      C7   Bb7                A7     A7addG  Dm7    C7     
Eeeeeeevenin', can't you see I'm deeply in your power         
   Bb7          A7          A7addG   Dm7          C7      Bb7   A7  A7addG
Oh Lord   Every minute seems like an hour since my gal is gone, my baby's gone


[Chorus]

D9            D9              D9             D9      D9                  C9               Bb            E7   
Shadows fall   upon the wall   That's when I need your kiss most of all   And though I try, how can I go on? 
E7
  Purty baby


[Verse]

Dm7      C7   Bb7       A7        A7addG     Dm7     C7   Bb7   
Eeeeeeevenin' let me sleep till gray dawn is breakin'  Oh yes   
        A7     A7addG    Dm    C7  Bb7   A7  A7addG
I don't care if I don't awaken, oh Lord, Lord


[Outro]

(Spice it up!!)

e|---9-----------------------------------------------------------|
B|---------13--10------------------------------------------------|
G|---------------------12b1-12-----10----------------------------|
D|12----12---------12----------12------12------------------------|
A|---------------------------------------------------------------|
E|---------------------------------------------------------------|

Fade            
Submit corrections

↑ Back to top | Tablatures and chords for acoustic guitar and electric guitar, ukulele, drums are parodies/interpretations of the original songs. You may use it for private study, scholarship, research or language learning purposes only