» » »

Taylor Swift - State Of Grace Tabs

Artists:  A B C D E F G H I J K L M N O P Q R S T U V W X Y Z # 

State Of Grace Tabs

(ver. 2) Click to play this song!
Taylor Swift
 Rating:
2.5/5 (22 votes)

 State Of Grace lessons Tabs too difficult? Try these video lessons and learn fast
 
                E |-----7-------|-----7----------|
B |--------9----|--------9--9----|
G |--9----------|--9-------------|
D |-------------|----------------|
A |-------------|----------------|
E |-------------|----------------|


-------------------------------------------------------|
--9h-10----------9-----------10----------9-------------|
-------------------------------------------------------|
-------------------------------------------------------|
-------------------------------------------------------|
-------------------------------------------------------|


-------------------------------------------||
--9h-10----------9-----------10------------||
-------------------------------------------||
-------------------------------------------||
-------------------------------------------||
-------------------------------------------||            
Submit corrections


        State Of Grace lessons Hard to play? Try these video lessons and learn fast State Of Grace lessons
        
↑ Back to top | Tablatures and chords for acoustic guitar and electric guitar, ukulele, drums are parodies/interpretations of the original songs. You may use it for private study, scholarship, research or language learning purposes only