» » »

Taylor Swift - Red Tabs

Artists:  A B C D E F G H I J K L M N O P Q R S T U V W X Y Z # 

Red Tabs

(ver. 2) Click to play this song!
Taylor Swift
 Rating:
4/5 (4 votes)

 Red lessons Tabs too difficult? Try these video lessons and learn fast
 
                (Live)
Red Live Tab
Taylor Swift

Standard Tuning w/ No Capo

Intro
e|-------------------------------------------|
B|-----5~-------5~-------5~------------------|
G|---6------6----------4---------------------|
D|-7----------6------6-----------------------|
A|-------------------------------------------|
E|-------------------------------------------|

Verse
e|-------------------------------------------|
B|-----5~-------5~-------4~------------------|
G|---6------6--------4-----------------------|
D|-7----------6--------4---------------------|
A|-------------------------------------------|
E|-------------------------------------------|


Chorus
e|-12----12----12--12---12---12-----7---7-7-9-7---7--|
B|----10----10--------9----9------7---7---------7----|
G|---------------------------------------------------|
D|---------------------------------------------------|
A|---------------------------------------------------|
E|---------------------------------------------------|

e|-12----12----12--12---12---12-----7---7------9-7--|
B|----10----10--------9----9------7---7---7--7------|
G|--------------------------------------------------|
D|--------------------------------------------------|
A|--------------------------------------------------|
E|--------------------------------------------------|

e|--------------------------------------|
B|--------------------------------------|
G|-2--2-4-4s6~--4-4-44-9-9-8-8-9-9-8-8--|
D|-2--2-4-4s6~--4-4-44-9-9-8-8-9-9-8-8--|
A|-0--0-0-2s4~--2-2-22-7-7-6-6-7-7-6-6--|
E|--------------------------------------|

e|-------------------------|
B|-------------------------|
G|-2--2-4-4s6~--4-4-44-4~--|
D|-2--2-4-4s6~--4-4-44-4~--|
A|-0--0-0-2s4~--2-2-22-2~--|
E|-------------------------|

Verse
e|--------------------|
B|-2s4~---------------|
G|-----------------0--|
D|--------2---1-------|
A|------0---4----2----|
E|--------------------|

e|----------------------|
B|----------------------|
G|-2--2--2--2--2--2--2--|
D|-2--2--2--2--2--2--2--|
A|-0--0--0--0--0--0--0--|
E|----------------------|

e|---------------------|
B|---------------------|
G|---------------------|
D|---------------------|
A|-2//6-6-4-4-2-2---2--|
E|----------------5----|

e|----------------------|
B|----------------------|
G|-2--2--2--2--2--2--2--|
D|-2--2--2--2--2--2--2--|
A|-0--0--0--0--0--0--0--|
E|----------------------|

Chorus Repeat

e|-12----12----12--12---12---12-----7---7-7-9-7---7--|
B|----10----10--------9----9------7---7---------7----|
G|---------------------------------------------------|
D|---------------------------------------------------|
A|---------------------------------------------------|
E|---------------------------------------------------|

e|-12----12----12--12---12---12-----7---7------9-7--|
B|----10----10--------9----9------7---7---7--7------|
G|--------------------------------------------------|
D|--------------------------------------------------|
A|--------------------------------------------------|
E|--------------------------------------------------|

e|--------------------------------------|
B|--------------------------------------|
G|-2--2-4-4s6~--4-4-44-9-9-8-8-9-9-8-8--|
D|-2--2-4-4s6~--4-4-44-9-9-8-8-9-9-8-8--|
A|-0--0-0-2s4~--2-2-22-7-7-6-6-7-7-6-6--|
E|--------------------------------------|

e|-------------------------|
B|-------------------------|
G|-2--2-4-4s6~--4-4-44-4~--|
D|-2--2-4-4s6~--4-4-44-4~--|
A|-0--0-0-2s4~--2-2-22-2~--|
E|-------------------------|

Bridge
e|---------| |---------| |----------| |-----| |-------|
B|---------| |---------| |----------| |-----| |-------|
G|-2-2-2-2-| |-4-4-4-4-| |-/7-7-7-7-| |-8-8-| |-9-9---|
D|-2-2-2-2-| |-4-4-4-4-| |-/7-7-7-7-| |-8-8-| |-9-9---|
A|-0-0-0-0-| |-2-2-2-2-| |-/5-5-5-5-| |-6-6-| |-7-7---|
E|---------| |---------| |----------| |-----| |-------|

e|-------------------------------|
B|-------------------------------|
G|-2-2-2-2--6-6-6-6--4-4-4-4-4~--|
D|-2-2-2-2--6-6-6-6--4-4-4-4-4~--|
A|-0-0-0-0--4-4-4-4--2-2-2-2-2~--|
E|-------------------------------|

Here is The super slide Solo
e|----------------------------|
B|-121212s10-9\5/7-5\4--------|
G|----------------------------|
D|---------------------1/4\0--|
A|----------------------------|
E|----------------------------|

e|-------12-1212-/14~-12\11\4/9--|
B|-10/12-------------------------|
G|-------------------------------|
D|-------------------------------|
A|-------------------------------|
E|-------------------------------|

Chorus Repeat

e|-12----12----12--12---12---12-----7---7-7-9-7---7--|
B|----10----10--------9----9------7---7---------7----|
G|---------------------------------------------------|
D|---------------------------------------------------|
A|---------------------------------------------------|
E|---------------------------------------------------|

e|-12----12----12--12---12---12-----7---7------9-7--|
B|----10----10--------9----9------7---7---7--7------|
G|--------------------------------------------------|
D|--------------------------------------------------|
A|--------------------------------------------------|
E|--------------------------------------------------|

e|--------------------------------------|
B|--------------------------------------|
G|-2--2-4-4s6~--4-4-44-9-9-8-8-9-9-8-8--|
D|-2--2-4-4s6~--4-4-44-9-9-8-8-9-9-8-8--|
A|-0--0-0-2s4~--2-2-22-7-7-6-6-7-7-6-6--|
E|--------------------------------------|

e|-------------------------|
B|-------------------------|
G|-2--2-4-4s6~--4-4-44-4~--|
D|-2--2-4-4s6~--4-4-44-4~--|
A|-0--0-0-2s4~--2-2-22-2~--|
E|-------------------------|

e|--------------------|
B|-//12-12\10\9\7//5--|
G|--------------------|
D|--------------------|
A|--------------------|
E|--------------------|

e|------12---12—12///14--|
B|-//12------------------|
G|-----------------------|
D|-----------------------|
A|-----------------------|
E|-----------------------|

e|-------------------------------------------|
B|-----5~-------5~---------------------------|
G|---6------6--------4-----------------------|
D|-7----------6--------4~--------------------|
A|-------------------------------------------|
E|-------------------------------------------|

Thanks
            
Submit corrections


        Red lessons Hard to play? Try these video lessons and learn fast Red lessons
        
↑ Back to top | Tablatures and chords for acoustic guitar and electric guitar, ukulele, drums are parodies/interpretations of the original songs. You may use it for private study, scholarship, research or language learning purposes only