» » »

Taylor Swift - Look What You Made Me Do Tabs

Artists:  A B C D E F G H I J K L M N O P Q R S T U V W X Y Z # 

Look What You Made Me Do Tabs

(ver. 2) Click to play this song!
Taylor Swift
 Rating:
4.4/5 (17 votes)

 Look What You Made Me Do lessons Tabs too difficult? Try these video lessons and learn fast
 
                Intro

e|------------------------------------------------------------------------|
B|------------------------------------------------------------------------|
G|------------------------------------------------------------------------|
D|------------------------------------------------------------------------| x2
A|----------0-------------------------------------------------------------|
E|--------------------------------------1---------1-----0----0---------0--|

Verse (part 1) *palm mute on lower strings

e|-------x-----------x---------x------------x---------x-------------x-----|
B|-------x-----------x---------x------------x---------x-------------x-----|
G|-------x-----------x---------7------------x---------x-------------x-----|
D|--/7---x-----7-----x-----10--x-----10-----9-----7---x------7------x-----|
A|---0---x--0-----0--x--0--0---x--0------0--x--0--10--x--10-----10--x--10-|
E|-------x-----------x---------x------------x---------x-------------x-----|


e|-----x--------------x---------x-----------x---------x-------------x-----|
B|-----x--------------x---------x-----------x---------x-------------x-----|
G|-----7--------------x---------x-----------x---------7-------------x-----|
E|-10--x------10------9------7--x-----7-----x-----10--x-----10------9-----|
A|-10--x--10------10--x--10--8--x--8-----8--x--8--8---x--8------8---x--8--|
E|-----x--------------x---------x-----------x---------x-------------x-----|


e|----x--------------x-----------x-----------x----------------------------|
B|----x--------------x-----------x-----------x----------------------------|
G|----x--------------x-----------7-----------x----------------------------|
D|-7--x--7--7--7-----x-----10----x-----7-----7\---------------------------|
A|-7--x--7--------7--x--7--7--7--x--7-----7--x----------------------------|
E|----x--------------x-----------x-----------x----------------------------|


Verse (part 2) *stop palm muting

e|--------x-----------x---------------------x----------x-----------x------|
B|--------x-----------x---------------------x----------x-----------x------|
G|--------x-----------x---------7-----------x----------x-----------x------|
D|-/7-----x-----7-----x-----10-------10-----9-----7----x-----7-----x------|
A|--0-----x--0-----0--x--0--0-----0------0--x--0--10---x--10---10--x--10--|
E|--------x-----------x---------------------x----------x-----------x------|


e|-----x--------------x---------x-----------x---------x------------x------|
B|-----x--------------x---------x-----------x---------x------------x------|
G|-----7--------------x---------x-----------x---------7------------x------|
D|-10--x------10------9------7--x-----7-----x-----10--x-----10-----9------|
A|-10--x--10------10--x--10--8--x--8-----8--x--8--8---x--8------8--x--8---|
E|-----x--------------x---------x-----------x---------x------------x------|


e|-----x--------------x-----------x-----------x---------------------------|
B|-----x--------------x-----------x-----------x---------------------------|
G|-----x--------------x-----------7-----------x---------------------------|
D|--7--x--7--7--7-----x-----10----x-----7-----7\--------------------------|
A|--7--x--7--------7--x--7--7--7--x--7-----7--x---------------------------|
E|-----x--------------x-----------x-----------x---------------------------|


Pre-Chorus

e|-----/5---5---5---5---5------5--5---5---5---5---5/12---12---------------|
B|-----/5-------5-----------------5---------------------------------------|
G|-----/5-------5-----------------5---------------------------------------|
D|------------------------------------------------------------------------|
A|--0-----------0----------0------0-----------0--------------0------------|
E|------------------------------------------------------------------------|


e|-----------------------------------------/12-12-------------------------|
B|----10-10-10-10-10----10-10-10-10-10-10--------------10-10-10-10-10---10|
G|----------0--------------0---------------------------------0------------|
D|------------------------------------------------------------------------|
A|-10-------10-------10----10-------10------------10-8-------8--------8---|
E|------------------------------------------------------------------------|


e|---------------/12-12-----x---------x-----------------------------------|
B|-10-10-10---10------------x---------x-----------------------------------|
G|-0------------------------x-5-5-5---x-5-5-5---7---7/9---9\--------------|
D|--------------------------x---------x-----------------------------------|
A|-8--------8-----------8---x---------x-----------------------------------|
E|------------------------0-x-0-----0-x-0-----0---0-----0-----------------|


Chorus

e|-------x----------x--------x-----------x----------x-----------x---------|
B|-------x----------x--------x-----1-1---0--1-------x-----------x---------|
G|-------x----5-5---4--5-----x-2-2-2-2---2--2--2/9--x----5--5---4--5------|
D|-/7-7--x-7--7-7---7--7--7\-x-2---------x-----2----x-7--7--7---7--7------|
A|--0-0--x-0------0-x--0--0--x-0-------0-x--0--0----x-0-------0-x--0------|
E|-------x----------x--------x-----------x----------x-----------x---------|


e|-------x-----------x----------x----------x---------x----------x---------|
B|-------x-----------x----------x---1-1----0--1------x----------x---------|
G|-5-5---4--5-5-5----4--5-------x-2-2-2----2--2--2/9-x----5-5---4--5------|
D|-7-7---7--7-7-7----7--7-/7-7--x-2--------x-----2---x-/7-7-7---7--7------|
A|-0---0-x--0-----0--x--0--0-0--x-0-----0--x--0--0---x--0-----0-x--0------|
E|-------x-----------x----------x----------x---------x----------x---------|


e|--------x--------------x-------------x--------------x-------------------|
e|--------x--------------x-------------x--------------x-------------------|
G|--------x-----5--5-----4--5--5--5----4--5--5--5-----4--5----------------|
D|-/7--7--x-/7--7--7-----7--7--7--7----7--7--7--7-----7--7----------------|
A|--0--0--x--0--------0--x--0--0-----0-x--0--------0--x--0----------------|
E|--------x--------------x-------------x--------------x-------------------|


Verse (part 1) *palm mute on lower strings

e|-------x-----------x---------x------------x---------x-------------x-----|
B|-------x-----------x---------x------------x---------x-------------x-----|
G|-------x-----------x---------7------------x---------x-------------x-----|
D|--/7---x-----7-----x-----10--x-----10-----9-----7---x------7------x-----|
A|---0---x--0-----0--x--0--0---x--0------0--x--0--10--x--10-----10--x--10-|
E|-------x-----------x---------x------------x---------x-------------x-----|


e|-----x--------------x---------x-----------x---------x-------------x-----|
B|-----x--------------x---------x-----------x---------x-------------x-----|
G|-----7--------------x---------x-----------x---------7-------------x-----|
E|-10--x------10------9------7--x-----7-----x-----10--x-----10------9-----|
A|-10--x--10------10--x--10--8--x--8-----8--x--8--8---x--8------8---x--8--|
E|-----x--------------x---------x-----------x---------x-------------x-----|


e|----x--------------x-----------x-----------x----------------------------|
B|----x--------------x-----------x-----------x----------------------------|
G|----x--------------x-----------7-----------x----------------------------|
D|-7--x--7--7--7-----x-----10----x-----7-----7\---------------------------|
A|-7--x--7--------7--x--7--7--7--x--7-----7--x----------------------------|
E|----x--------------x-----------x-----------x----------------------------|


Verse (part 2) *stop palm muting

e|---3---3-1-1-0---0----------x----------x------------x------------x------|
B|-------1---------1-3-3-1----1--0-1-0---1-0----------x----8-------x--8---|
G|-------2---------2----------2----------2------/5----5--4-5-5-----4--5---|
D|-------x---------x----------x----------x------/7----7--7---7-----7------|
A|-0---0-x-0-----0-x-0-----0--x--0-----0-x-0-0------0-x--0------0--x------|
E|-------x---------x----------x----------x------------x------------x------|


e|-------x------------x-------/3----3--1-1-0---0----------x----------x----|
B|-------x------------x-------------1----------1--3-3-1---1--0-1-0---1-0--|
G|---5---5--4--5--4---5--4----------2----------2----------2----------2----|
D|---7---7--7--7--7---7--7----------x----------x----------x----------x----|
A|-0---0-x--0-------0-x----0-----0--x--0-----0-x--0-----0-x--0-----0-x-0--|
E|-------x------------x-------------x----------x----------x----------x----|


e|-----------x--------------x-----------x-----------x---------------------|
B|-----------x--------------x-----------x-----------x---------------------|
G|----/5-----5--4--5--5-----5--4--5-----x-----------x---------------------|
D|----/7-----7--7--7--7-----7--7--7-----7-----7-----7\--------------------|
A|-0------0--x--0--------0--x-----0--0--x--0-----0--x---------------------|
E|-----------x--------------x-----------x-----------x---------------------|


Pre-Chorus

e|-----/5---5---5---5---5------5--5---5---5---5---5/12---12---------------|
B|-----/5-------5-----------------5---------------------------------------|
G|-----/5-------5-----------------5---------------------------------------|
D|------------------------------------------------------------------------|
A|--0-----------0----------0------0-----------0--------------0------------|
E|------------------------------------------------------------------------|


e|-----------------------------------------/12-12-------------------------|
B|----10-10-10-10-10----10-10-10-10-10-10--------------10-10-10-10-10---10|
G|----------0--------------0---------------------------------0------------|
D|------------------------------------------------------------------------|
A|-10-------10-------10----10-------10------------10-8-------8--------8---|
E|------------------------------------------------------------------------|


e|---------------/12-12-----x---------x-----------------------------------|
B|-10-10-10---10------------x---------x-----------------------------------|
G|-0------------------------x-5-5-5---x-5-5-5---7---7/9---9\--------------|
D|--------------------------x---------x-----------------------------------|
A|-8--------8-----------8---x---------x-----------------------------------|
E|------------------------0-x-0-----0-x-0-----0---0-----0-----------------|


Chorus

e|-------x----------x--------x-----------x----------x-----------x---------|
B|-------x----------x--------x-----1-1---0--1-------x-----------x---------|
G|-------x----5-5---4--5-----x-2-2-2-2---2--2--2/9--x----5--5---4--5------|
D|-/7-7--x-7--7-7---7--7--7\-x-2---------x-----2----x-7--7--7---7--7------|
A|--0-0--x-0------0-x--0--0--x-0-------0-x--0--0----x-0-------0-x--0------|
E|-------x----------x--------x-----------x----------x-----------x---------|

e|-------x-----------x----------x----------x---------x----------x---------|
B|-------x-----------x----------x---1-1----0--1------x----------x---------|
G|-5-5---4--5-5-5----4--5-------x-2-2-2----2--2--2/9-x----5-5---4--5------|
D|-7-7---7--7-7-7----7--7-/7-7--x-2--------x-----2---x-/7-7-7---7--7------|
A|-0---0-x--0-----0--x--0--0-0--x-0-----0--x--0--0---x--0-----0-x--0------|
E|-------x-----------x----------x----------x---------x----------x---------|


e|--------x--------------x-------------x--------------x-------------------|
B|--------x--------------x-------------x--------------x-------------------|
G|--------x-----5--5-----4--5--5--5----4--5--5--5-----4--5----------------|
D|-/7--7--x-/7--7--7-----7--7--7--7----7--7--7--7-----7--7----------------|
A|--0--0--x--0--------0--x--0--0-----0-x--0--------0--x--0----------------|
E|--------x--------------x-------------x--------------x-------------------|


Bridge

e|------------------------------------------------------------------------|
B|-5--5-------5--5--------5--5--------5-------------0--0h1p0--------------|
G|-5----------------------5-----------5-------2--2--2---------2-----------|
D|-7----7--7--------7--7--7-----7-----7-----------------------------------|
A|-0-------0--------0-----0--------0-----0--------------------------------|
E|------------------------------------------1-------1------------1--------|


e|------------------------------------------------------------------------|
B|------------------------------------------------------------------------|
G|-1---1---1---2---2/4---2------------------------------------------------| x2
D|-2----------------------------------------------------------------------|
A|------------------------------------------------------------------------|
E|-0-----------0---------0------------------------------------------------|


e|-----------x----------------x----------------x--------------x-----------|
B|-/5--5-----x------5--5------x------5--5------x-------5------x-----------|
G|-/5--------5----------------5----------------5-------5------x-----------|
D|-/7--------7---7------------7---7------------7---7----------x-----------|
A|--0-----0--x---0--------0---x---0---------0--x---0-------0--x--0--------|
E|-----------x----------------x----------------x--------------x-----------|


e|----------0-------------x-----------------x-----------------x-----------|
B|----------1---0--0h1p0--x-----------------x-----------------x-----------|
G|----2-----2---2---------2-------1---1-----1---2---2/4-------2-----------|
D|----------x-------------x-------2---------x-----------------x-----------|
A|----------x-------------x-----------------x-----------------x-----------|
E|-1-----1--x---1---------x---1---0------0--x---0---------0---x---0-------|


e|-----------x----------------x----------------x--------------x-----------|
B|-/5--5-----x------5--5------x------5--5------x-------5------x-----------|
G|-/5--------5----------------5----------------5-------5------x-----------|
D|-/7--------7---7------------7---7------------7---7----------x-----------|
A|--0-----0--x---0--------0---x---0---------0--x---0-------0--x--0--------|
E|-----------x----------------x----------------x--------------x-----------|


e|-------------0---------------x-------------------x-------7p5---5--------|
B|-------------1---0---0h1p0---x-------------------x-------0--------------|
G|-----2-------2---2-----------2-------1---1-------1---2---0--------------|
D|-------------x---------------x-------2-----------x----------------------|
A|-------------x---------------x-------------------x----------------------|
E|-1-------1---x---1-----------x---1---0-------0---x---0------------------|


Chorus *palm mute on lower strings

e|---------x------------------x---------------x-----------------x---------|
B|-----5---x------------------x---------------x-------1--1------0---1-----|
G|-----5---x------5---5-------4---5-------2---x---2---2--2------2---2-----|
D|-7-------x--7---7---7-------7---7---7---2---x-----------------x---------|
A|-0---0---x--0-----------0---x---0---0-------x---0---------0---x---0-----|
E|---------x------------------x---------------x-----------------x---------|


e|-------x--------------x-----------x------------x---------x--------0-----|
B|-------x-----1--1-----0--1--------x-----1--1---0--1------x--1-1---0--1--|
G|-2--2--x--2--2--2-----2--2--2--2--x--2--2--2---2--2-2-3--2--2-2---2--2--|
D|-0--0--x--0-----------x-----0--0--x--0---------x----3-3--3--------x-----|
A|-------x--------------x-----------x------------x---------x--------x-----|
E|-3-----x--3--------3--x--3--3-----x--3-------3-x--3-1----x------1-x--1--|


e|-------x--------------0--------0--x--------------0-------------0--------|
B|-------x-----1--1-----0--1-----0--x-----1--1-----0--1--1--1----0--1-----|
G|-2--2--x--2--2--2-----2--2--2--2--x--2--2--2-----2--2--2--2----2--2-----|
D|-3--3--x--3-----------x-----2--2--x--2-----------x-------------x--------|
A|-------x--------------x-----------x--------------x-------------x--------|
E|-1-----x--1--------1--x--1--0-----x--0--------0--x--0-------0--x--0-----|


*stop palm muting

e|--------x--------------x-----------x----------x-------x----------x------|
B|--------x--------------x-----------x----1-1---0-1-----x---1-1----0-1----|
G|--------x------5-5-----4--5-----2--x--2-2-2---2-2-2-2-x-2-2-2----2-2----|
D|-/7--7--x--/7--7-7-----7--7--7/-2--x--2-------x---0-0-x-0--------x------|
A|--0--0--x---0-------0--x--0--0-----x--0-----0-x-0-----x----------x------|
E|--------x--------------x-----------x----------x---3---x-3-----3--x-3----|


e|------x-----------x---------x------------0----------x-----------0-------|
B|------x----1-1----0--1------x----1-1-----0--1-------x----1-1----0--1----|
G|-2-2--x--2-2-2----2--2-2-2--x--2-2-2-----2--2--2-2--x--2-2-2----2--2----|
D|-0-0--x--0--------x----3-3--x--3---------x-----3-3--x--3--------x-------|
A|------x-----------x---------x------------x----------x-----------x-------|
E|-3----x--3-----3--x--3-1----x--1------1--x--1--1----x--1-----1--x--1----|


e|-------x--------------0--------------0----------------------------------|
B|-------x-----1--1-----0--1--1--1-----0--1--1--1--0--1-------------------|
G|-2--2--x--2--2--2-----2--2--2--2-----2--2--2----------------------------|
D|-2--2--x--2-----------x--------------x------------------7\--------------|
A|-------x--------------x--------------x----------------------------------|
E|-0-----x--0--------0--x--0--------0--x--0-------------------------------|

            
Submit corrections


        Look What You Made Me Do lessons Hard to play? Try these video lessons and learn fast Look What You Made Me Do lessons
        
↑ Back to top | Tablatures and chords for acoustic guitar and electric guitar, ukulele, drums are parodies/interpretations of the original songs. You may use it for private study, scholarship, research or language learning purposes only