» » »

Taylor Swift - I'm Only Me When I'm With You Tabs

Artists:  A B C D E F G H I J K L M N O P Q R S T U V W X Y Z # 

I'm Only Me When I'm With You Tabs

(ver. 2) Click to play this song!
Taylor Swift
 Rating:
4/5 (4 votes)

 I'm Only Me When I'm With You lessons Tabs too difficult? Try these video lessons and learn fast
 
                This is my first tab ever so I hope its good, so let me know :/.  I know it is not
but I didnt want it to be, I wanted it to go with the words and sound pretty.  Alot of the
transition very quickly so dont break them up too much.  As far as tuning goes it 
on what you want it so sound like.

More upbeat sound: standard tuning capo 2
Slower prettier sound: half step down so eb Bb F# C# G# Eb (GDA dont have flats on
only piano!!!!!!!!)

Verse
e|--3-----3-----3-----3---------------------------------------------|
B|--3-----3-----3-----3---------------------------------------------|
G|--0 x9 -2 x9 -0 x9 -0-h2------------------------------------------| x2
D|--0-----0-----0-----x---------------------------------------------|
A|--2-----0-----3-----x---------------------------------------------|
E|--3-----2-----0-----x---------------------------------------------|

e|--0-0-0-0-0-0-0-0-0-0-0-0-0-0-0-0-0-------------------------------|
B|--1-1-1-1-0-0-0-0-0-1-1-1-1-2-2-2-2-------------------------------|
G|--0-0-0-0-0-0-0-0-0-2-2-2-2-3-3-3-3-------------------------------| x1
D|--2-2-2-2-2-2-2-2-2-2-2-2-2-0-0-0-0-------------------------------|
A|--3-3-3-3-2-2-2-2-2-0-0-0-0---------------------------------------|
E|--0-0-0-0-0-0-0-0-0-0-0-0-0---------------------------------------|

Chorus
e|--333-xx-333-xx-333-xx-0----0----0----0---------------------------|
B|--333-xx-333-xx-333-xx-0----1----0----2---------------------------|
G|--000-xx-000-xx-000-xx-0 x6 0 x5 0 x5 3 x10 or so-----------------|
D|--000-xx-000-xx-000-xx-2----2----2----0---------------------------|
A|--222-xx-000-xx-333-xx-2----3----2--------------------------------|
E|--333-xx-222-xx-000-xx-0----0----0--------------------------------|

e|--333-xx-333-xx-333-xx-0----0----0----2------------ 3-----3-----3------|
B|--333-xx-333-xx-333-xx-0----1----0----3-------------3-----2-----3------|
G|--000-xx-000-xx-000-xx-0 x6 2 x5 0 x5 2 x10 or so---0 x5 -3 x5 -0 x5 --|
D|--000-xx-000-xx-000-xx-2----2----2----0-------------0-----0-----0------|
A|--222-xx-000-xx-333-xx-2----0----2------------------x------------------|
E|--333-xx-222-xx-000-xx-0----0----0------------------3------------------|

Break
e|--3-----3-------0-------0------------------------------|
B|--3-----3-------0-------1------------------------------|
G|--0-----2-------0-------0------------------------------|
D|--0 x4 -0 x4 ---2 x4 ---2 x4 --------------------------|
A|--2-------------2-------3------------------------------|
E|--3-------------0-------0------------------------------|

Verse
Chorus
Break

Bridge
e|--0-000000-00000000000-33333-3~~----------------------------|
B|--0-000001-11111122222-33333-3~~----------------------------|
G|--0-000000-00000022222-22222-2~~----------------------------|
D|--2-222222-22222222222-00000-0~~----------------------------|
A|--2-222223-33333300000-------0~~----------------------------|
E|--0-000000-000000xxxxx-------0~~----------------------------|

2nd Chorus
e|--xxxx--3-33333333333333333000000---0-----0-----0--------------|
B|--xxxx--3-33333333333333333000000---1-----0-----2--------------|
G|--xxxx--0-00000222222000000000000---0-----0-----3--------------|
D|--xxxx--0-00000000000000000222222---2 x5 -2 x5 -0 x10 or so ---|
A|--xxxx--2-22222000000333333222222---3-----2--------------------|
E|--xxxx--3-33333222222000000000000---0-----0--------------------|

e|--3-33333333333333333000000---0-----0-----2-------------3-----3-----3----|
B|--3-33333333333333333000000---1-----0-----3-------------3-----2-----3----|
G|--0-00000222222000000000000---2-----0-----2-------------0-----3-----0----|
D|--0-00000000000000000222222---2 x5 -2 x5 -0 x10 or so --0 x5 -0 x5 -0 x5-
A|--2-22222000000333333222222---0-----2-------------------x----------------|
E|--3-33333222222000000000000---0-----0-------------------3----------------|

Break x2

End
e|--03~~--|
B|--03~~--|
G|--00~~--|
D|---2~~--|
A|---3~~--|
E|--
            
Submit corrections


        I'm Only Me When I'm With You lessons Hard to play? Try these video lessons and learn fast I'm Only Me When I'm With You lessons
        
↑ Back to top | Tablatures and chords for acoustic guitar and electric guitar, ukulele, drums are parodies/interpretations of the original songs. You may use it for private study, scholarship, research or language learning purposes only