» » »

T.A.T.U - Show Me Love Tabs

Artists:  A B C D E F G H I J K L M N O P Q R S T U V W X Y Z # 

Show Me Love Tabs

(ver. 1) Click to play this song!
T.A.T.U
 Rating:
4/5 (4 votes)
    Show Me Love lessons Tabs too difficult? Try these video lessons and learn fast
                
Verse
e|-------------------------------------|
b|--------4---------4------------------|
g|------5-------5-----------5-------5--|
d|----5-------5---5-------6-------5----|
a|--3-------3-----------6-------5------|
E|--------------------4-------3--------|

Chorus
e|-----------|
b|-----------|
g|--5--------|
d|--5--6--3--|
a|--3--6--3--|
E|-----4--1--|

e|------------3-----------3-4-4-4-4-4---------------3--|
b|--4-4-4-4-6---4-4-4-4-6---------------3-3-3-3-4-6----|
g|------------------------------------5----------------|
d|-----------------------------------------------------|
a|-----------------------------------------------------|
E|-----------------------------------------------------|
            
Submit corrections

↑ Back to top | Tablatures and chords for acoustic guitar and electric guitar, ukulele, drums are parodies/interpretations of the original songs. You may use it for private study, scholarship, research or language learning purposes only