» » »

Tashaki Miyaki - I Only Have Eyes For You Cover Tabs

Artists:  A B C D E F G H I J K L M N O P Q R S T U V W X Y Z # 

I Only Have Eyes For You Cover Tabs

(ver. 1) Click to play this song!
Tashaki Miyaki
 Rating:
4/5 (4 votes)

 I Only Have Eyes For You Cover  lessons Tabs too difficult? Try these video lessons and learn fast
 
                Intro:

Bb7, Em  D,

Melody
E|-----------------------------------------------------|
B|--------------13------------------15-----------------|
G|---------9-12----12-9-------10-14----14-10-----------|    (x11)
D|----/10-----------------\12--------------------------|
A|-----------------------------------------------------|
E|-----------------------------------------------------|

       1st 6 notes of melody     C      C7
(I don't know if it's cloudy or) bright.

  Fmaj7              Am7  Ab7
I only have eyes for you, dear


Melody
E|-----------------------------------------------------|
B|--------------13------------------15-----------------|
G|---------9-12----12-9-------10-14----14-10-----------|    (x3)
D|----/10-----------------\12--------------------------|
A|-----------------------------------------------------|
E|-----------------------------------------------------|


      1st 6 notes of Melody      C   C7
(But I can't see a thing in the) sky.

  Fmaj7               D7
I only have eyes for, you Ooh.


                         *(notes between Fmaj7 & F7)
                             |0-5-1----------1|
                             |1-----1--------1|
                             |2-------2---2--2|
                             |3---------3----1|
                             |---------------3|
                             |----------------|
Gm7        C                 *Fmaj7  F7
   I don't know if we're in a garden,

                    *( notes between F & Db9)
                          |0--5--1--|
                          |1-------4|
                          |2-------4|
                          |3-------3|
                          |--------4|
                          |---------|
Bbmaj7        Bbm7        *F   Db9
      Or on a crowded aven-ue.

Melody
E|-----------------------------------------------------|
B|--------------13------------------15-----------------|
G|---------9-12----12-9-------10-14----14-10-----------|    (x3)
D|----/10-----------------\12--------------------------|
A|-----------------------------------------------------|
E|-----------------------------------------------------|

   1st 6 notes of melody    C     C7
(Maybe millions of people), go by.


        Fmaj7                 D7
But they all disappear, from view.

      Gm7            C
And I only have eyes,  ......for you...

Melody
E|----------------------------------------|
B|--------------13------------------15----|
G|---------9-12----12-9-------10-14----14-|   (x2)
D|----/10-----------------\12-------------|
A|----------------------------------------|
E|----------------------------------------|

 (Let ring)
E|-0----|
B|-8----|
G|-9----|
D|-10---|
A|------|
E|------|            
Submit corrections


        I Only Have Eyes For You Cover  lessons Hard to play? Try these video lessons and learn fast I Only Have Eyes For You Cover  lessons
        
↑ Back to top | Tablatures and chords for acoustic guitar and electric guitar, ukulele, drums are parodies/interpretations of the original songs. You may use it for private study, scholarship, research or language learning purposes only