Home » T » Tara Devi »

Tara Devi - Ukali Orali Haruma Chords

Artists:  A B C D E F G H I J K L M N O P Q R S T U V W X Y Z # 

Ukali Orali Haruma Chords

(ver. 1) Click to play this song!
Tara Devi
Intro:

E----8-8-10--8-8---8-8-10--8-8------13--------------13------------------------|
B-----9-------9-----9-------9----------16p15-16p15-----------------------13---|
G------------------------------------------------------15p13--15p13----13-----|
D--------------------------------------------------------------------15-------|
A-----------------------------------------------------------------------------|
E-----------------------------------------------------------------------------|

Solo:

E---16-15p13-16-15---16-15p13-16-15--15-13p11-15-13-----8---6-----------------|
B-----------------------------------------------------9---6-------8---6-------|
G---------------------------------------------------------------8---5---------|
D-----------------------------------------------------------------------------|
A-----------------------------------------------------------------------------|
E-----------------------------------------------------------------------------|

Fm
Ukaali orali haruma bhanjyang ani chautari haruma
   Eb             Fm    Ab            Eb          
Sundar ti daha haruma Himal ka bisaal chati haruma
Fm                    Eb   Ab                      Fm
Jahan Jahan jaanchau timi ma paaila bani pachyai rahanchu
   Ab     Eb                        Ab              Fm
Ti chahara khola khahare haruma samjhana bani bagi rahanchu

Fm              Eb         Ab               Eb
Tarai ka hariya faant ma pahad ka tareli haruma
  Bb                 Eb        Ab     Bb    Fm
Himal ka sundar ani bikat ti basti basti haruma
Fm                    Eb  Ab                          Fm
Jahan jahan jaanchau timi ma baato bani saathai aai rahanchu
   Ab       Eb                  Ab                  Fm
Ti suskera thakai suseli haruma geet bani gunji rahanchu

Fm                 Eb      Ab                Eb
Mutu kamaune jaado haruma kapal dukhne garmi haruma
  Bb                 Eb   Ab     Bb         Fm
Mana harne sundar drisya saanta sital batawaran ma
Fm                    Eb  Ab                          Fm
Jahan jahan jaannchau timi ma aakash bani dekhi rahanchu
   Ab       Eb                  Ab                  Fm
Ti leka besi and pakha haruma pawan bani bheti rahanchu            
Submit corrections

↑ Back to top | Tablatures and chords for acoustic guitar and electric guitar, ukulele, drums are parodies/interpretations of the original songs. You may use it for private study, scholarship, research or language learning purposes only