» » »

Taproot - Smile Tabs

Artists:  A B C D E F G H I J K L M N O P Q R S T U V W X Y Z # 

Smile Tabs

(ver. 2) Click to play this song!
Taproot
 Rating:
4/5 (4 votes)

 Smile lessons Tabs too difficult? Try these video lessons and learn fast
 
                
Tuning (A D G C F A)

Intro (low distortion)

|----------------------------------------|
|----------------------------------------|
|----------------------------------------|
|-6-6-6-6-6--6-6-6-6-6--6-6-6-6-6--5-2-4-|
|-6-6-6-6-6--6-6-6-6-6--6-6-6-6-6--5-2-4-|
|-4-4-0-4-4--4-4-0-4-4--4-4-0-4-4--3-0-2-|

Chorus (Distortion)

|----------------------------------------|
|----------------------------------------|
|----------------------------------------|
|-6-6-6-6-6--6-6-6-6-6--6-6-6-6-6--5-2-4-|
|-6-6-6-6-6--6-6-6-6-6--6-6-6-6-6--5-2-4-|
|-4-4-0-4-4--4-4-0-4-4--4-4-0-4-4--3-0-2-|

Verse

|------------|--------------------------------------|
|------------|--------------------------------------|
|-12\9/11-11-|--------------------------------------|
|-x--x-x--x--|--------------------------------------|
|-10\7/9--9--|-5-2-4----5-2-4-4----5-2-4----5-2-4-4-|
|------------|-3-0-2----3-0-2-2----3-0-2----3-0-2-2-|

Prechorus

|--------------------------------------------------------|
|-11--11-11-11--11--11-11-11--11--11-11-11--11--11-11-11-|
|-9---9--9--9---9---9--9--9---9---9--9--9---9---9--9--9--|
|-10--10-10-10--10--10-10-10--10--10-10-10--10--10-10-10-|
|--------------------------------------------------------|
|--------------------------------------------------------|

|---------------------------------|
|---------------------------------|
|---------------------------------|
|-7-7-7-7-7-7-7-7/8-8-8-8-8-8-8-8-|
|-7-7-7-7-7-7-7-7/8-8-8-8-8-8-8-8-|
|-5-5-5-5-5-5-5-5/6-6-6-6-6-6-6-6-|

Bridge (clean w/chorus effect)

|-----0-------0-------0-------0-------0-------0-------0-------0---|
|-----0-------0-------0-------0-------0-------0-------0-------0---|
|-----0-------0-------0-------0-------0-------0-------0-------0---|
|-3-3-3-3-3-3-3-3/6-6-6-6-6-6-6-6/7-7-7-7-7-7-7-7\4-4-4-4-4-4-4-4-|
|-3-3-3-3-3-3-3-3/6-6-6-6-6-6-6-6/7-7-7-7-7-7-7-7\4-4-4-4-4-4-4-4-|
|-1-1-1-1-1-1-1-1/4-4-4-4-4-4-4-4/5-5-5-5-5-5-5-5\2-2-2-2-2-2-2-2-|

|-----0-------0-------0-------0-------0-------0-------0-------0---|
|-----0-------0-------0-------0-------0-------0-------0-------0---|
|-----0-------0-------0-------0-------0-------0-------0-------0---|
|-3-3-3-3-3-3-3-3-3-3-3-3-3-3-3-3\2-2-2-2-2-2-2-2-2-2-2-2-2-2-2-2-|
|-3-3-3-3-3-3-3-3-3-3-3-3-3-3-3-3\2-2-2-2-2-2-2-2-2-2-2-2-2-2-2-2-|
|-1-1-1-1-1-1-1-1-1-1-1-1-1-1-1-1\0-0-0-0-0-0-0-0-0-0-0-0-0-0-0-0-|

Distortion

|-----------------------------------------------------------------|
|-----------------------------------------------------------------|
|-----------------------------------------------------------------|
|-3-3-3-3-3-3-3-3/6-6-6-6-6-6-6-6/7-7-7-7-7-7-7-7\4-4-4-4-4-4-4-4-|
|-3-3-3-3-3-3-3-3/6-6-6-6-6-6-6-6/7-7-7-7-7-7-7-7\4-4-4-4-4-4-4-4-|
|-1-1-1-1-1-1-1-1/4-4-4-4-4-4-4-4/5-5-5-5-5-5-5-5\2-2-2-2-2-2-2-2-|

|-----------------------------------------------------------------|
|-----------------------------------------------------------------|
|-----------------------------------------------------------------|
|-3-3-3-3-3-3-3-3-3-3-3-3-3-3-3-3\2-2-2-2-2-2-2-2-2-2-2-2-2-2-2-2-|
|-3-3-3-3-3-3-3-3-3-3-3-3-3-3-3-3\2-2-2-2-2-2-2-2-2-2-2-2-2-2-2-2-|
|-1-1-1-1-1-1-1-1-1-1-1-1-1-1-1-1\0-0-0-0-0-0-0-0-0-0-0-0-0-0-0-0-|

End on

|---------|
|---------|
|----4h6~-|
|-7~------|
|-7~------|
|-5~------|
            
Submit corrections


        Smile lessons Hard to play? Try these video lessons and learn fast Smile lessons
        
↑ Back to top | Tablatures and chords for acoustic guitar and electric guitar, ukulele, drums are parodies/interpretations of the original songs. You may use it for private study, scholarship, research or language learning purposes only