Home » T » Taproot »

Taproot - Emotional Times Tabs

Artists:  A B C D E F G H I J K L M N O P Q R S T U V W X Y Z # 

Emotional Times Tabs

(ver. 3) Click to play this song!
Taproot

Tuning: (A,E,A,D,G,B)

VERSE:
|--------------------------------------------------------|
|--------------------------------------------------------|
|--------------------------------------------------------|
|-00-0-00-0--1010-10-1010-10--55-5-55-5--1010-10-1010-10-|
|-00-0-00-0---8-8--8--8-8--8--55-5-55-5---8-8--8--8-8--8-|
|-00-0-00-0---8-8--8--8-8--8--55-5-55-5---8-8--8--8-8--8-|

VERSE B:
|-------------------------|
|-------------------------|
|-------------------------|
|-22-2-22-2-2-11-1-11-1-1-|
|-22-2-22-2-2-11-1-11-1-1-|
|-22-2-22-2-2-11-1-11-1-1-|

CHORUS:
|--------------------------------------------------------|
|--------------------------------------------------------|
|--------------------------------------------------------|
|-77-7-77-7-7-1010-10-1010-10-10-22-2-22-2-2-11-1-11-1-1-|
|-55-5-55-5-5--8-8--8--8-8--8--8-22-2-22-2-2-11-1-11-1-1-|
|-55-5-55-5-5--8-8--8--8-8--8--8-22-2-22-2-2-11-1-11-1-1-|

CHORUS B:
|-------------------------------------------------------------|
|-------------------------------------------------------------|
|-------------------------------------------------------------|
|-77-7-77-7-7-1010-10-1010-10-10-22-2-22-2-2------------------|
|-55-5-55-5-5--8-8--8--8-8--8--8-22-2-22-2-2------------------|
|-55-5-55-5-5--8-8--8--8-8--8--8-22-2-22-2-2-30-0-0-0h2-2h3-3-|

|------------------|
|------------------|
|------------------|
|------------------|
|------------------|
|-30-0-0-0h2-2h3-3-|

BRIDGE:
|------------------|
|------------------|
|------------------|
|-30-0-0-0h2-2h3-3-|
|-30-0-0-0h2-2h3-3-|
|-30-0-0-0h2-2h3-3-|

INTERLUDE:
|-------------------------------------------------|
|-------------------------------------------------|
|-------------------------------------5-5-5-------|
|-------------------------------3-3-3-------3-3-3-|
|-------------------------5-5-5-------------------|
|-0-0-0-0-0-0-0-0-0-0-0-0-------------------------|

INTERLUDE 2: (w/ effect)
|-----------------------------------|
|-----------------------------------|
|-55-5-----55-5-----55-5-----55-5---|
|-33-3-7---33-3-7---33-3-7---33-3-7-|
|-55-5-5---55-5-5---55-5-5---55-5-5-|
|-----------------------------------|

INTERLUDE 3: (w/ effect)
|------------|
|------------|
|-5555--7777-|
|-3333--7777-|
|-5555--5555-|
|------------|
            
Submit corrections

↑ Back to top | Tablatures and chords for acoustic guitar and electric guitar, ukulele, drums are parodies/interpretations of the original songs. You may use it for private study, scholarship, research or language learning purposes only